Judas Priest - Green Manalishi Chords & Tabs

 

Green Manalishi Chords & Tabs

Judas Priest Chords & Tabs

Version: 3 Type: Tab 0 ratings
1 star 2 stars 3 stars 4 stars 5 stars
comments

Green Manalishi Tab

   
Song: Green Manalishi
Artist: Judas Priest
Legend: h= Hammer on
        p= Pull off
        pm= Palm mute
        b= bend
        / = slide
Intro
intro riff                           1._________   2.________      last time
e|-----------------------------------|-------------|------------------------|
B|--------8-8-8--7-7-7---------------|-------------|------------------------|
G|--------9-9-9--7-7-7---------------|-------------|--------------9v--------|
D|--9/7/9-9-9-9--7-7-7-9-9/7-7/5-5-5-|--5--7-7-----|---5--7--7-8--9v--------|
A|--7/5/7--------------7-7/5-5/3-3-3--2-3--5-5-------2-3--5--5-6--7v--------|
E|--------------------------------------------------------------------------|

intro solo (come in second time
e|--------------------------------------------------------------------------|
B|--------------------------------------------------------------------------|
G|------------------------------------12------------------------------------|
D|--------------7v-----------------------14vvvvv----------------------------|
A|-7vvvv-7-9-10----10-9-7vvv----12h14---------------------------------------|
E|--------------------------------------------------------------------------|

verse:
1. When the day goes to sleep and the full moon looks
   and then night is so black that the darkness cooks
2. I can' believe you needed my love so bad
   Sneaking around trying to drive me mad
3. Cuz youre the green manalishi with the two prong crown
   all my dragging is up, all youre bringing is down
play this during the above lyrics (both guitars)
e|--------------------------------------------------------------------------|
B|--------------------------------------------------------------------------|
G|--------------------------------------------------------------------------|
D|--------------------------------------------------------------------------|
A|-2-2-2-2-2-2-2-2-2-2-2-2-2-2-2--------------------------------------------|
E|-0-0-0-0-0-0-0-0-0-0-0-0-0-0-0--------------------------------------------|
pm . . . . . . . . . . . . . . .
play this after the above lyrics
Glenn
e|--------------------------------------------------------------------------|
B|--------------------------------------------------------------------------|
G|--------------------------------------------------------------------------|
D|--------------------------------------------------------------------------|
A|-2---2-5-7--5-7--5-2-2----------------------------------------------------|
E|-0---0-3-5--3-5--3-0-0----------------------------------------------------|
K.K.
e|--------------------------------------------------------------------------|
B|--------12-14--12-14--12--------------------------------------------------|
G|--------12-14--12-14--12--------------------------------------------------|
D|-14--14------------------14-14--------------------------------------------|
A|--------------------------------------------------------------------------|
E|--------------------------------------------------------------------------|

1. and you come sneaking around, making me do things i dont wanna do
2. Bustin in all my dreams, makin me see things i dont wanna see
3. Just takin my love, and slip away, leaving me here trying to keep from following you
play this during the above lyrics(both guitars
E|--------------------------------------------------------------------------|
B|--------------------------------------------------------------------------|
G|--------------------------------------------------------------------------|
D|--------------------------------------------------------------------------|
A|-5-----------------------------7------------------------------------------|
E|-3-----------------------------5------------------------------------------|
then play this after the lyrics (both guitars i think or maybe just kk not sure)
e|--------------------------------------------------------------------------|
B|--------------------------------------------------------------------------|
G|--------------------------------------------------------------------------|
D|---5-4-----2--------------------------------------------------------------|
A|-------2-5----------------------------------------------------------------|
E|-0-----------2b(3)-0------------------------------------------------------|


IN BETWEEN VERSES
This is very similiar the the intro but slightly different, play this between verses, with both guitars
e|---------------------------------------------------------------------------|
B|---------------------------------------------------------------------------|
G|----------------------play this four times then--------9vv-----------------|
D|-9-7-9--12---12-9-7------------------------------------9vv-----------------|
A|-7-5-7--10---10-7-5------------------------------------7vv-----------------|
E|---------------------------------------------------------------------------|
[ Tab from: http://www.guitartabs.cc/tabs/j/judas_priest/green_manalishi_tab_ver_3.html ]
SOLO (DUELING GUITARS)
the two parts i put are played at the same time just one will switch to rythm and one 
switch to lead
e|--------------------------------------------------------------------------|
B|--------------------------------------------------------------------------|
G|--------------------------------------------------------------------------|
D|--------------------------------------------------------------------------|
A|--------------------------------------------------------------------------|
E|--------------------------------------------------------------------------|
K.K.
e|--------------------------------------------12--------------12------------|
B|-----------------------------------------------15-12-----------15b(17)----|
G|-2b(4)-(4)--2p0-2-2---2--2-0-2p0---------------------14b(16)--------------|
D|---------------------------------2vvvv------------------------------------|
A|--------------------------------------------------------------------------|
E|--------------------------------------------------------------------------|
Glenn
e|--------------------------------------------------------------------------|
B|---------8-8-8--7-7-7-----------------------------------------------------|
G|---------9-9-9--7-7-7-----------------------------------------------------|
D|-9/7/9---9-9-9--7-7-7--9--9/7-7/5--5-5-----5---7-7------------------------|
A|-7/5/7-----------------7--7-5-5-3--3-3--2--3---5-5------------------------|
E|--------------------------------------------------------------------------|

K.K. (tarts rythm)
e|--------------------------------------------------------------------------|
B|---------8-8-8--7-7-7-----------------------------------------------------|
G|---------9-9-9--7-7-7-----------------------------------------------------|
D|-9/7/9---9-9-9--7-7-7--9--9/7-7/5--5-5-----5---7-7------------------------|
A|-7/5/7-----------------7--7-5-5-3--3-3--2--3---5-5------------------------|
E|--------------------------------------------------------------------------|
Glenn (Takes Lead)
e|----------------12-14-15-15b(17)-12-----12-------12-----------------------|
B|-15b(17)-15b(17)-------------------15-15--15b(17)--1512-------1512--------|
G|-------------------------------------------------------14b(16)----14b(16)-|
D|--------------------------------------------------------------------------|
A|--------------------------------------------------------------------------|
E|--------------------------------------------------------------------------|

K.K. still playing the rythm shown above,then starting lead
e|----------------------------------------------------------------------10--|
B|--------------------------------------------------------8-7----10b(12)----|
G|----------------------------------------------7---7-9-7----9v-------------|
D|-----------------------------------------------7-9------------------------|
A|----------------------5b(7)-5b(7)-5b(7)-5b(7)-----------------------------|
E|--------------------------------------------------------------------------|
end of glenns lead part, then starting rythm
e|--------------------------------------------------------------------------|
B|-12---------------12---------8-8-8--7-7-7---------------------------------|
G|---14p12----12-14------------9-9-9--7-7-7---------------------------------|
D|---------14------------9/7/9-9-9-9--7-7-7-9-9/7-7/5-5-5---5--7-7----------|
A|-----------------------7/5/7--------------7-7/5-5/3-3-3-2-3--5-5----------|
E|--------------------------------------------------------------------------|

K.K. finishing up his lead
e|--------------------------------------------------------------------------|
B|-10b(12)-10-8------------8-8-8--7-7-7-------------------------------------|
G|--------------9vv--------9-9-9--7-7-7-------------------------------------|
D|-------------------9/7/9-9-9-9--7-7-7-9-9/7-7/5-5-5----5--7-7-------------|
A|-------------------7/5/7--------------7-7/5-5/3-3-3-2-2--5-5--------------|
E|--------------------------------------------------------------------------|
Glenn still playing rythm then starts lead again (plays lead really fast but slows down towards end
e|-----------------------1212121212-4 times--------1212151212151212---------|
B|----------------15b(17)-------------------15b(17)----------------1515-----|
G|--------------------------------------------------------------------------|
D|--------------------------------------------------------------------------|
A|--------------------------------------------------------------------------|
E|--------------------------------------------------------------------------|
finishing up the end of the solo (still glenn)
e|--------------------------------------------------------------------------|
B|-12151512---12------------------------------------------------------------|
G|---------14---14141212------12-12----12-12--------------------------------|
D|----------------------14----------14-------14-12-14----12-----------------|
A|----------------------------------------------------14----10--------------|
E|-------------------------------------------------------------12vvvvvvvv---|
end solo
then you play the 3rds verse and the outro is just the same as the intro only the outro 
is like this
Glenn
e|--------------------------------------------------------------------------|
B|--------------------------------------------------------------------------|
G|----------------------------------------------12--------------------------|
D|-------------7----------------------7v------------14vvvv------------------|
A|--7vv-7-9-10---10-9-7vv--7vv-7-9-10-----12h14-----------------------------|
E|--------------------------------------------------------------------------|
and you play that a few times and rob sings along then heres the very last part of the song
e|--------------------------------------------------------------------------|
B|--------------------------------------------------------------------------|
G|--------------------------------------------------------------------------|
D|---5-4-----2-----------------5-4-2----------------------------------------|
A|-------2-5---2-5-3-2-------2----------------------------------------------|
E|-0-------------------0-2-3------------------------------------------------|
thats all and i know the timing with the rythm and the lead in the solo doesnt match up 
but if you have half a brain you should be able to figure that out
hope you enjoy this awesome song
-Phil
Comments