Judas Priest - Evil Fantasies Chords & Tabs

 

Evil Fantasies Chords & Tabs

Judas Priest Chords & Tabs

Version: 1 Type: Tab 0 ratings
1 star 2 stars 3 stars 4 stars 5 stars
comments

Evil Fantasies Tab

   
Band:  Judas Priest
Album: Killing Machine
Song:  Evil Fantasies

Copyright (c)  (CBS) (1978)
Version 1.0 - (27/02/05)

Transcribed By: Steve
Email:          stephen.elvidge1@ntlworld.com


.  - palm mute           /  - slide up to
\  - slide down to       ~  - vibrato
h  - hammer on           b  - Bend
p  - pull off            Suffixes for bend
t  - tap                 f  - full bend    h - half bend
ph - pinched harmonic    q  - quarter bend t - tap bend
*  - see comment         ^  - Hold bend    r release bend
x  - Stuccatto           ~  - vibrato bend
,  - slight palm mute    () - ghost note, sustained note
"  - tremolo note        <> - Trill

Tunning E A D G B E
 

Intro / Main Riff

    h        [PM]   h               h                   ~~~~
E-----------------------------------------------------------|
B-----------------------------------------------------------|
G-----2---------------2-2---2---------2-----------------2---|
D------------2-2--------------------------------------------|
A-3-4----3p0-0-0--3-4-----3-------3-4---3p0-----3p0---------|
E-------------------------------------------3p0-----3p0-----|

 Drums enter 2nd time.
 Rpt once more before vocals enter.
[ Tab from: http://www.guitartabs.cc/tabs/j/judas_priest/evil_fantasies_tab.html ]
 Verse
    h               h               h                   ~~~~
E-----------------------------------------------------------|
B-----------------------------------------------------------|
G-----2---------------2-2---2---------2-----------------2---|
D------------2-2--------------------------------------------|
A-3-4----3p0-0-0--3-4-----3-------3-4---3p0-----3p0---------|
E-------------------------------------------3p0-----3p0-----|
    h               h               h 
E-----------------------------------------------------------|
B-----------------------------------------------------------|
G-----2---------------2-2---2---------2-----------------2---|
D------------2-2----------------------------------------2---|
A-3-4----3p0-0-0--3-4-----3-------3-4---3p0-----3p0-----0---|
E-------------------------------------------3p0-----3p0-----|
                                                         Rpt
 
 Chorus

E----------------------------------------|
B----------------------------------------|
G----------------------------------------|
D--------------7/9\7------------7---7----|
A-7/9\7/9\-7/9-5/7\5--7/9\7/9\--5---5-7--|
E-5/7\5/7\-5/7--------5/7\5/7\--------5--|

                           [--PM--]
E----------------------------------------|
B----------------------------------------|
G---------------------2------------------|
D--------------7/9\7--2------------------|
A-7/9\7/9\-7/9-5/7\5--0----5-5-5-5/7-7---|
E-5/7\5/7\-5/7-------------3-3-3-3/5-5---|


E----------------------------------------|
B----------------------------------------|
G----------------------------------------|
D--------------7/9\7------------7---7----|
A-7/9\7/9\-7/9-5/7\5--7/9\7/9\--5---5-7--|
E-5/7\5/7\-5/7--------5/7\5/7\--------5--|

                           [--PM--]
E----------------------------------------|
B----------------------------------------|
G---------------------2------------------|
D--------------7/9\7--2------------------|
A-7/9\7/9\-7/9-5/7\5--0----5-5-5-5-2-----|
E-5/7\5/7\-5/7-------------3-3-3-3-0-----|

 Rpt verse and chorus



E------------------------------|
B------------------------------|
G------------------------------|
D--------------------------7---|
A-2-2---2-2---2-2---2-2--x-5---|
E-0-0---0-0---0-0---0-0--x-----|Rpt 2 X

 Rpt Chorus
 Rpt verse riff to fade.





END
Comments