Judas Priest - Eletric Eye Chords & Tabs

 

Eletric Eye Chords & Tabs

Judas Priest Chords & Tabs

Version: 1 Type: Tab 1 rating
1 star 2 stars 3 stars 4 stars 5 stars
comments

Eletric Eye Tab

   
Judas Priest
Eletric eye

Gtr I (E A D G B E) - 'Untitled'
Gtr II (E A D G B E) - 'Untitled'
Gtr III (E A D G B E) - 'Untitled'
Gtr IV (E A D G B E) - 'Untitled'

 Intro
  Fast Heavy Metal Q=194
  E5VII     N.C.             (C5)                 A5
      4/4
  Gtr I
            PM  PM    PM     ~~~~~~~~PM  PM  PM
|---||-------------------------|--------------------|
|---||-------------------------|--------------------|
|---||-------------------------|--------------------|
|-9-||-(9)\--------------------|--------------------|
|-7-||-(7)\---7---[9]---[10]---|-------7---9---10-7-|
|---||------0---0-----5------8-|-(8)-0---0---5----5-|
|
| Gtr II
|---||-------------------------|--------------------|
|---||-------------------------|--------------------|
|---||-------------------------|--------------------|
|-9-||-(9)\--------------------|--------------------|
|-7-||-(7)\---7----9-----10----|-------7---9---10---|
|---||-----------------------8-|-(8)--------------5-|


      N.C.             (B5)                 B5  E5VII
      PM  PM    PM                 PM
|--------------------------|-----------------------|
|--------------------------|-----------------------|
|--------------------------|-----------------------|
|--------------------------|---------------------9-|
|-(7)---7---[9]---[10]-----|---------9---10--9---7-|
|-(5)-0---0-----5------[7]-|-([7])-0---7----[7]----|
|
|--------------------------|-----------------------|
|--------------------------|-----------------------|
|--------------------------|-----------------------|
|--------------------------|-----------------------|
|-------7----9-----10---9--|--(9)----9---10--9S=14-|
|-(5)-------------------7--|--(7)------------7S=12-|


     N.C.             (C5)                     A5
     PM  PM    PM      ~~~~~~~~~~~PM  PM  PM
|-------------------------|----------------------|
|-------------------------|----------------------|
|-------------------------|----------------------|
|-9\----------------------|----------------------|
|-7\---7---[9]---[10]-----|---------7---9---10---|
|----0---0-----5------[8]-|-([8])-0---0---5----5-|
|
|-------------------------|----------------------|
|-------------------------|----------------------|
|-------------------------|----------------------|
|-9\----------------------|----------------------|
|-7\---7----9-----10------|---------7---9---10---|
|----------------------8--|--(8)---------------5-|


                       B5                       E5VII
      PM  PM    PM                 PM  PM   PM
|--------------------------|-----------------------|
|--------------------------|-----------------------|
|--------------------------|---------------------9-|
|--------------------------|---------------------9-|
|-------7---[9]---[10]-----|---------9---10---9--7-|
|-(5)-0---0-----5------[7]-|-([7])-0---0----0------|
|
|--------------------------|-----------------------|
|--------------------------|-----------------------|
|--------------------------|-----------------------|
|--------------------------|-----------------------|
|-------7----9-----10---9--|--(9)----9---10-9S==14-|
|-(5)-------------------7--|--(7)-----------7S==12-|


                                                          1.
                               D5   E5VII                       (B(A5)   (GE5VII
    Gtrs I, II
         PM|   PM--|     PM--|               PM|   PM--|
||-------------------|----------------|------------------|--------------------||
||o------------------|----------------|------------------|-------------------o||
||--(9)------9-------|-9-------7--7-9-|-(9)------9-------|-9---------------9--||
||--(9)------9-------|-9-------7--7-9-|-(9)------9-------|-9--7s8s7-(7)--5-9--||
||o-(7)------7-------|-7-------5--5-7-|-(7)------7-------|-7--7s8s7-(7)--5-7-o||
||-------0-0---0-0-0-|---0-0-0--------|------0-0---0-0-0-|--------------------||


                       Verses
  2.
       (B(A5)     A5                               G5opeA5
                             PM|   PM--|     PM--|
|-------------------||-------------------|----------------|
|-------------------||o------------------|----------------|
|-9---------------2-||--(2)------2-------|-2-------0--0-2-|
|-9--7s8s7-(7)--0-2-||--(2)------2-------|-2-------0--0-2-|
|-7--7s8s7-(7)----0-||o-(0)--0-0-0-0-0-0-|-0-0-0-0--------|
|-------------------||-------------------|----------------|


                             (G5) A5
       PM|   PM--|     PM--|               PM|   PM--|
|------------------|----------------|------------------|
|------------------|----------------|------------------|
|-(2)------2-------|-2-------0--0-2-|-(2)------2-------|
|-(2)------2-------|-2-------0--0-2-|-(2)------2-------|
|------0-0---0-0-0-|---0-0-0--------|------0-0---0-0-0-|
|------------------|----------------|------------------|


          G5opeA5                             G5opeE5VII
    PM--|               PM|   PM--|     PM--|
|----------------|------------------|----------------|
|----------------|------------------|----------------|
|-2-------0--0-2-|-(2)------2-------|-2-------0--0-9-|
|-2-------0--0-2-|-(2)------2-------|-2-------0--0-9-|
|---0-0-0--------|------0-0---0-0-0-|---0-0-0------7-|
|----------------|------------------|----------------|


                             D5V   E5VII
       PM|   PM--|     PM--|   PM           PM|   PM--|
|------------------|-----------------|------------------|
|------------------|-----------------|------------------|
|-(9)------9-------|-9-------7---7-9-|-(9)------9-------|
|-(9)------9-------|-9-------7---7-9-|-(9)------9-------|
|-(7)------7-------|-7-------5---5-7-|-(7)------7-------|
|------0-0---0-0-0-|---0-0-0---0-----|------0-0---0-0-0-|


       (B(A5)   (BE5VII                          D5V   E5VII
                           PM|   PM--|     PM--|   PM
|-------------------|------------------|-----------------|
|-------------------|------------------|-----------------|
|-9---------------9-|-(9)------9-------|-9-------7---7-9-|
|-9--7s8s7-(7)--5-9-|-(9)------9-------|-9-------7---7-9-|
|-7--7s8s7-(7)--5-7-|-(7)------7-------|-7-------5---5-7-|
|-------------------|------0-0---0-0-0-|---0-0-0---0-----|


                                        Pre-Chorus
                                      $
                                    (C5)
       PM|   PM--|     PM  PM  PM
|------------------|------------------||--------|
|------------------|------------------||--------|
|-(9)------9-------|-9----------------||--------|
|-(9)------9-------|-9----------------||--------|
|-(7)------7-------|-7---7---9---10---||--------|
|------0-0---0-0-0-|---0---0---0----8-||-(8)----|


                    (A5)                             D5V
      PM  PM                             PM  PM
|---------------------|------------|-------------------|
|---------------------|------------|-------------------|
|---------------------|------------|-------------------|
|---------------------|------------|-----------------7-|
|-------7---[9]--10-0-|-(0)--------|-(0)---7---9--10-5-|
|-(8)-0---0-----------|------------|-----0---0---------|


                                                          To Coda
                   N.C.         B5
                   PM  PM
|------------|--------------------|-------------|-----------------||
|------------|--------------------|-------------|-/12------(12)\--||
|------------|--------------------|-------------|-/11------(11)\--||
|-(7)--------|-(7)--------------4-|-(4)---------|-----------------||
|-(5)--------|-(5)---9---10--12-2-|-(2)p=====0--|-----------------||
|------------|-----0---0----------|-------------|-----------------||


 Chorus
     Asus4  A     G   E5VII  D5V     Asus4  A5    G
|---------------|---------------|---------------|------|
|----3--(3)-2---|-0-------------|----3--(3)-2---|-0----|
|----2--(2)-2---|-0---9-(9)--7--|----2--(2)-2---|-0----|
|----2--(2)-2---|-0---9-(9)--7--|----2--(2)-2---|-0----|
|---------------|-----7-(7)--5--|---------------|------|
|-0-------------|---------------|-0-------------|------|


                                                   1.
       Asus4  A     G   E5VII  D5V     Asus4  A     G          A5
|-----------------|---------------|---------------|---------------||
|-(0)--3--(3)-2---|-0-------------|----3--(3)-2---|-0------(0)---o||
|-(0)--2--(2)-2---|-0---9-(9)--7--|----2--(2)-2---|-0------(0)-2--||
|-(0)--2--(2)-2---|-0---9-(9)--7--|----2--(2)-2---|-0------(0)-2--||
|-----------------|-----7-(7)--5--|---------------|--------------o||
|--0--------------|---------------|-0-------------|---------------||


  2.
  B5                                                                         E5VII
  Gtrs III, IV
|-7h10p7----7-11p8----8-12p9----10-|-13p=10----11-14p11----11-15p12----13-16----||
|--------10--------10--------11----|--------12----------13----------14-------18-||
|----------------------------------|--------------------------------------------||
|----------------------------------|--------------------------------------------||
|----------------------------------|--------------------------------------------||
|----------------------------------|--------------------------------------------||
|
| Gtrs I, II
|----------------------------------|--------------------------------------------||
|----------------------------------|--------------------------------------------||
|-4--------------------------------|-(4)-----------------------------------4s=9-||
|-4--------------------------------|-(4)-----------------------------------4s=9-||
|-2--------------------------------|-(2)-----------------------------------2s=7-||
|----------------------------------|--------------------------------------------||


 Guitar Solo
                        D5V   E5VII
             ~~~~~~~~~~~
|--------------------------------------|
|-(18)b21--(18)---(18)\---/18-18b20====|
|--------------------------------------|
|--------------------------------------|
|--------------------------------------|
|--------------------------------------|
|
|            PM---|
|--------------------------------------|
|--------------------------------------|
|--(9)-------9--9---9---7------9-------|
|--(9)-------9--9---9---7------9-------|
|--(7)-------7--7---7---5------7-------|
|---------------------------0----------|


                          D5VC5                     G5III          E5open
         ~~~~~~
|----------------------------15b17-|-(15)--12-------15p12---------------|
|-(18)r-18b21======(18)r\----------|----------15p12-------12------------|
|----------------------------------|-------------------------12-14---12-|
|----------------------------------|------------------------------------|
|----------------------------------|------------------------------------|
|----------------------------------|------------------------------------|
|
|              PM--|
|----------------------------------|------------------------------------|
|----------------------------------|------------------------------------|
|--(9)---------9-9---9----7---5----|--(5)-------------------------------|
|--(9)---------9-9---9----7---5----|--(5)------------5-------------2----|
|--(7)---------7-7---7----5---3----|--(3)------------5-------------2----|
|----------------------------------|-----------------3-------------0----|


                                E5VII
|---------------------------------------17--|
|-------------------------------------------|
|-14b16r(14)p12-----------------------------|
|---------------14-12-----------------------|
|-------------------------------------------|
|---------------------15-12b14==(12)r12-----|
|
|                                 PM----|
|-------------------------------------------|
|-------------------------------------------|
|---------------------------------9---9--9--|
|-(2)--------------------(2)------9---9--9--|
|-(2)--------------------(2)------7---7--7--|
|-(0)--------------------(0)----------------|


                            D5V      E5VII
|-(17)p15p14-15p14----14s12----12-------|
|------------------17-------15----15-12-|
|---------------------------------------|
|---------------------------------------|
|---------------------------------------|
|---------------------------------------|
|
|             PM------|
|---------------------------------------|
|---------------------------------------|
|--(9)--------9-----9--9-----7--------9-|
|--(9)--------9-----9--9-----7--------9-|
|--(7)--------7-----7--7-----5--------7-|
|-------------------------------0-------|


                                D5V        C5                       G5III        E5open
|-12h=15p12----12-------------------------------|-------------------------------------|
|-----------15----15---12-15-12------12---------|-14p=11----11------------------------|
|---------------------------------14----15---14-|--------12----12-9-12-9----9---------|
|-----------------------------------------------|------------------------12---11---9--|
|-----------------------------------------------|-------------------------------------|
|-----------------------------------------------|-------------------------------------|
|
|               PM--------|
|-----------------------------------------------|-------------------------------------|
|-----------------------------------------------|-------------------------------------|
|-(9)-----------9----9-----9----7----------5----|-(5)---------------------------------|
|-(9)-----------9----9-----9----7----------5----|-(5)----------------5-----------2----|
|-(7)-----------7----7-----7----5----------3----|-(3)----------------5-----------2----|
|-----------------------------------------------|--------------------3-----------0----|

[ Tab from: http://www.guitartabs.cc/tabs/j/judas_priest/eletric_eye_tab.html ]
                            B5VII                           A5          B5VII
                   ~~
|---------------------------------|-------14-17-17-14-14-14-17-14-14-17-------14-|
|---------------------------17b19-|-(17)--------------------------------17b19----|
|---------------------------------|----------------------------------------------|
|-12p=9----9----------------------|----------------------------------------------|
|-------12---10-9-----------------|----------------------------------------------|
|-----------------12--(12)\-------|----------------------------------------------|
|
|                                          PM---|                  PM
|---------------------------------|----------------------------------------------|
|---------------------------------|----------------------------------------------|
|---------------------------------|----------------------------------------------|
|-(2)------------------(2)---9----|--(9)---9-----9-----9-----7-----------9-------|
|-(2)------------------(2)---9----|--(9)---9-----9-----9-----7-----------9-------|
|-(0)------------------(0)---7----|--(7)---7-----7-----7-----5-----5-----7-------|


                                     A5      G5III
                               ~~~~~~
|-14--17-------14-14-17-17-14-17b19====(17)\------|
|--------17b19------------------------------------|
|-------------------------------------------------|
|-------------------------------------------------|
|-------------------------------------------------|
|--------------------------------------------/14--|
|
|                  PM---|
|-------------------------------------------------|
|-------------------------------------------------|
|-------------------------------------------------|
|-(9)--------------9-----9-----9-----7---------5--|
|-(9)--------------9-----9-----9-----7---------5--|
|-(7)--------------7-----7-----7-----5---------3--|


                   A5                B5VII
           PM---------|                                                ~~
|------------------------------------------|--------------------------------------|
|------------------------------------------|--------------------------------------|
|------------------------------------------|-----------------------14-16----(16)\-|
|------------------------------------14----|-----14-15-16-14-16-16----------------|
|------------------14-15----14-15-17----15-|-17-----------------------------------|
|-(14)-15-17-16-17-------17----------------|--------------------------------------|
|
|------------------------------------------|--------------------------------------|
|------------------------------------------|--------------------------------------|
|------------------------------------------|--------------------------------------|
|--(5)-----5S=======7-----------7-----9----|-(9)--------------------------9---9---|
|--(5)-----5S=======7-----------7-----9----|-(9)--------------------------9---9---|
|--(3)-----3S=======5-----------5-----7----|-(7)--------------------------7---7---|


                                 A5          B5VII
   T            T           T           T
|-19p=14h17p14-19p14h16p14-19p14h17p14-19p14h16p14--|
|---------------------------------------------------|
|---------------------------------------------------|
|---------------------------------------------------|
|---------------------------------------------------|
|---------------------------------------------------|
|
|               PM---|                  PM
|---------------------------------------------------|
|---------------------------------------------------|
|---------------------------------------------------|
|-(9)-----------9-----9-----9-----7-----------9-----|
|-(9)-----------9-----9-----9-----7-----x-----9-----|
|-(7)-----------7-----7-----7-----5-----x-----7-----|


                              A5          G5III
   T            T        T           T
|-22p=14h17p14-22p14h17S22p17h19p17-22p17h19p17-|
|-----------------------------------------------|
|-----------------------------------------------|
|-----------------------------------------------|
|-----------------------------------------------|
|-----------------------------------------------|
|
|               PM---|
|-----------------------------------------------|
|-----------------------------------------------|
|-----------------------------------------------|
|-(9)-----------9-----9--9-----7-----------5----|
|-(9)-----------9-----9--9-----7-----------5----|
|-(7)-----------7-----7--7-----5-----------3----|


                            A5                B5VII                                   C5
                                                                         ~~~~~~~~~
|-19h=22p19-----------------19----------------------|--------19-------------------------|
|-----------22-(22)22p21p19----22p21p19----21-22p21-|-22b24-----22b24==(22)-(22)\-------|
|---------------------------------------20----------|-----------------------------------|
|---------------------------------------------------|-----------------------------------|
|---------------------------------------------------|-----------------------------------|
|---------------------------------------------------|-----------------------------------|
|
|---------------------------------------------------|-----------------------------------|
|---------------------------------------------------|-----------------------------------|
|---------------------------------------------------|---------------------------------5-|
|-(5)------------5S==========7-----------------9----|-(9)-------------------------(9)-5-|
|-(5)------------5S==========7-----------------9----|-(9)-------------------------(9)-3-|
|-(3)------------3S==========5-----------0-----7----|-(7)-------------------------(7)---|


                                A5                                      C5
                      ~~~                        ~~~~~~~~~~~
|------------------|--------------|-------------------|-------------------|
|-----7-8-10-8-7---|--8-------8p0-|-------------------|-------------------|
|--9---------------|--------------|--9pb11r==(9)-9----|-(9)----9s16-------|
|------------------|--------------|-------------------|-------------14\---|
|------------------|--------------|-------------------|-------------------|
|------------------|--------------|-------------------|-------------------|
|
|------------------|--------------|-------------------|-------------------|
|------------------|--------------|-------------------|-------------------|
|-(5)--------------|-(5)--------2-|-(2)---------------|-(2)---------(2)-5-|
|-(5)--------------|-(5)------0-2-|-(2)---------------|-(2)---------(2)-5-|
|-(3)--------------|-(3)------0-0-|-(0)---------------|-(0)---------(0)-3-|
|------------------|--------------|-------------------|-------------------|


                                   B5
                      ~~~~~~~~~~
|------------------|-----------------|
|-----7-8-10-8-7---|--8----(8)S5---4-|
|--9---------------|-----------------|
|------------------|-----------------|
|------------------|-----------------|
|------------------|-----------------|
|
|------------------|-----------------|
|------------------|-----------------|
|-(5)--------------|-(5)-----------4-|
|-(5)--------------|-(5)-----------4-|
|-(3)--------------|-(3)-----------2-|
|------------------|-----------------|


                        D5                         E5VII
      PM----------|            PM-----|   TP
|---------------------------|-------------------------10---||
|-(4)-----------------------|-------------4/--8-10-12------||
|-------------------2-3---4-|---------2-4------------------||
|-------------2-3-5---------|--1--2-4----------------------||
|-----0-2-3-5---------------|------------------------------||
|---------------------------|------------------------------||
|
|---------------------------|------------------------------||
|---------------------------|------------------------------||
|-(4)-------------------7---|-(7)-------------7-----9------||
|-(4)-------------------7---|-(7)-------------7-----9------||
|-(2)---------------0---5---|-(5)-------------5-----7------||
|---------------------------|------------------------------||


 Re Intro
      N.C.         (C5)                 A5
|-12\----------------|--------------------|
|--------------------|--------------------|
|--------------------|--------------------|
|--------------------|--------------------|
|--------------------|--------------------|
|--------------------|--------------------|
|
|     PM  PM  PM           PM  PM  PM
|--------------------|--------------------|
|--------------------|--------------------|
|-(9)----------------|--------------------|
|-(9)----------------|--------------------|
|-(7)---7---9---10---|-------7---9---10-7-|
|-----0---0---5----8-|-(8)-0---0---5----5-|


                   (B5)             B5VIIE5VII
|--------------------|----------------------|
|--------------------|----------------------|
|--------------------|----------------------|
|--------------------|----------------------|
|--------------------|----------------------|
|--------------------|----------------------|
|
|     PM  PM  PM           PM
|--------------------|----------------------|
|--------------------|----------------------|
|--------------------|----------------------|
|--------------------|----------------------|
|-(7)---7---9---10---|-------9---10--9S==14-|
|-(5)-0---0---5----7-|-(7)-0---x----[7]S=12-|


                    (C5)                 A5
  Gtrs I, II
       PM  PM  PM           PM  PM  PM
|---------------------|--------------------|
|---------------------|--------------------|
|---------------------|--------------------|
|---------------------|--------------------|
|-(14)---7---9---10---|-------7---9---10-7-|
|-(12)-0---0---5----8-|-(8)-0---0---5----5-|


                   (B5)             B5VIIE5VII
      PM  PM               PM
|--------------------|----------------------||
|--------------------|----------------------||
|--------------------|----------------------||
|--------------------|----------------------||
|-(7)---7---9-9-10---|-------9---10--9S==14-||
|-(5)-0---0--------7-|-(7)-0---x----[7]S=12-||


   Bridge
    D5    C5    D5      C5    D5  C5D5
    Gtr I
      PM|   PM|   PM--|   PM|
                                       4x
||------------------|------------------||
||o-----------------|-----------------o||
||--7-----5-----7---|---5-----7---5h7--||
||--7-----5-----7---|---5-----7p5-5h7--||
||o---0-0---0-0---0-|-0---0-0---------o||
||------------------|------------------||
|
|   Gtr II
|     PM|   PM|   PM--|   PM|   PM  PM
|                                      4x
||------------------|------------------||
||o-----------------|-----------------o||
||--7-----5-----7---|---5-----7---5----||
||--7-----5-----7---|---5-----7---5----||
||o---0-0---0-0---0-|-0---0-0---0---0-o||
||------------------|------------------||


      D5    C5  A5     C5 D5                 C5  A5     C5 D5 C5
    Gtrs I, II
    PM  PM|          PM   ~~~~~~     PM  PM|          PM      ~
||-----------------|---------------|----------------|---------------||
||o----------------|---------------|----------------|--------------o||
||----7-----5s4-2--|---5--7-(7)----|---7-----5s4-2--|---5--7--5-----||
||----7-----5s4-2--|---5--7-(7)----|---7-----5s4-2--|---5--7--5-----||
||o-0---0-0--------|-0-------------|-0---0-0--------|-0------------o||
||-----------------|---------------|----------------|---------------||


  B5VII                  Bm7     B5VII            A5    F#5 A5     B5
|-----------------|------------------|----------------|---------------|
|-----------------|------3-(3)-------|----------------|---------------|
|-----4--(4)-2----|-4----2-(2)---2h4-|-----4--(4)-2---|-----2-(2)--4--|
|-2h4-4--(4)-2----|-4------------2h4-|-2h4-4--(4)-2---|-4---2-(2)--4--|
|-2---2--(2)----2-|----2-------2-----|-2---2--(2)-----|-4-------------|
|-----------------|------------------|----------------|---------------|


                                                          D.S. al Coda
  B5                     Bm7     B5               A5    F#5           (C5)
                                                          PM  PM  PM  T
|-----------------|------------------|----------------|-----------------||
|-----------------|------3-(3)-------|----------------|-----------------||
|-----4--(4)-2----|-4----2-(2)---2h4-|-----4--(4)-2---|-----------------||
|-2h4-4--(4)-2----|-4------------2h4-|-2h4-4--(4)-2---|-4---2---4---5---||
|-2---2--(2)----2-|----2-------2-----|-2---2--(2)-----|-4-------------3-||
|-----------------|------------------|----------------|---2---2---2-----||


   Out-Chorus
    &
       Asus4  A     G   E5VII  D5      Asus4  A     G
                                                          3x
||----------------|---------------|---------------|-------||
||o----3--(3)-2---|-0-------------|----3--(3)-2---|-0----o||
||-----2--(2)-2---|-0---9-(9)--7--|----2--(2)-2---|-0-----||
||-----2--(2)-2---|-0---9-(9)--7--|----2--(2)-2---|-0-----||
||o---------------|-----7-(7)--5--|---------------|------o||
||--0-------------|---------------|-0-------------|-------||


     Asus4  A     G   E5VII  D5      Asus4  A       Asus4  A
|---------------|---------------|---------------|--------------|
|----3--(3)-2---|-0-------------|----3--(3)-2---|---3--(3)-2---|
|----2--(2)-2---|-0---9-(9)--7--|----2--(2)-2---|---2--(2)-2---|
|----2--(2)-2---|-0---9-(9)--7--|----2--(2)-2---|---2--(2)-2---|
|---------------|-----7-(7)--5--|---------------|--------------|
|-0-------------|---------------|-0-------------|--------------|


                      D5     G5III E5open
|-----------------|--------------|------*|
|-(2)--0--(0)-----|--------------|------*|
|-(2)--0--(0)-9---|---7--(7)-----|------*|
|-(2)--0--(0)-9---|---7--(7)-5---|-2----*|
|-------------7---|---5--(5)-5---|-2----*|
|-----------------|----------3---|-0----*|



Comments