Judas Priest - Dream Deceiver Chords & Tabs

 

Dream Deceiver Chords & Tabs

Judas Priest Chords & Tabs

Version: 1 Type: Tab 0 ratings
1 star 2 stars 3 stars 4 stars 5 stars
comments

Dream Deceiver Tab

 #----------------------------------PLEASE NOTE---------------------------------#
 #This file is the author's own work and represents their interpretation of the #
 #song. You may only use this file for private study, scholarship, or research. #
 #------------------------------------------------------------------------------##
  (If anyone would like to use these tabs for commercial use ie. Websites etc.
                 please seek permission as copyrights are held)

  
    Judas Priest      Dream Deceiver 

    Author:Ssofianos@hotmail.com 
    Any comments or corrections send me an e-mail guys!
    I done it because it's a beutifull song and there is nowhere else in the internet
    such close i think!!!
                                             ENJOY!!!!!!
 
  
  |-----------0------------0------------|-------------------------------|
  |-------0------------0----------------|-------------------------------|
  |---------0------------0--------------|-------------------------------|
  |-----2------------2------------------|-------------------------------|
  |-------------------------------------|-------------------------------|
  |---0------------0--------------------|-------------------------------|
      INTRO                                                
                       

  e|---------0----------------0---------|--------------------------0----|
  b|-----0-----0----------0-----0-------|----------------------0--------|
  g|-------0-----0----------0-----0-----|-----0-------0----------0------|
  d|---2-----------2----4-----------4---|---2---2---0---0----2----------|
  a|------------------5-----------------|-3-------2---------------------|
  E|-0----------------------------------|------------------0------------|
       2 X "Standing by my window breathing sommer... "                                   
                       

  e|-------------------------------0----|-------------------------------|
  b|-------0---------0---------------0--|-------------------------------|
  g|-----0---------0---------0---0-----0|-------------------------------|
  d|---4---------2---------2---2--------|-------------------------------|
  a|-5---------3------------------------|-------------------------------|
  E|---------------------0--------------|-------------------------------|
       2 X "Asked us if we were happy,we said... "                                   
                       

  e|-----------------------------------------0---------------------------|
  b|-------0---------------------------0---0----0------------------------|
  g|-----0-----------0--------0----------0--------0----------------------|
  d|---4-----------0--------0--------2-----------------------------------|
  a|-5-----------2--------4----------------------------------------------|
  E|-----------3--------5----------0-------------------------------------|
      "Took us by the hands and up we go ..."          
                       

  e|-------------0-------------------------------|----------------------------|
  b|---------------------------------------------|----------------------------|
  g|-----0--------------------------0------------|----------------------------|
  d|---------2--------------4-------5-----4------|--4-------------------------|
  a|--------------------5-------5-------------5--|--5-----5-\-2-----/---------|
  E|-0-------------------------------------------|----------------------------|
     Verse I     play 6X                                 
        end fill A 
                          
  e|-------------3------------------2------------|----------------------------|
  b|-------------3------------------3--3---------|----------------------------|
  g|-----0-------0------------------2----2-------|----------------------------|
  d|---------2---2----------4--------------0-----|--4---------/9--7-----------|
  a|--------------------5-------5----------------|--5-------------------------|
  e|-0-------------------------------------------|-------5--------------------|
     Verse II     play 6X                              
        end fill B                   

  e|----------------|-----------------------|
  b|----7-8--10--8--|---------4-2-0---------|
  g|--9-------------|---222-4----------4--2-|
  d|----------------|-----------------------|
  a|-----fill a-----|----fillb--------------|
  E|----------------|-----------------------|
    
   
    Pattern for this:
    Verse I  - end fill A
    Verse II - fill a
    Verse I  - end fill A
    Verse II - fill b
    Verse I  - end fill A
    Verse II - end fill B

                 
  e|-0---0----------2--3--2-0h2-0--------------0----0-------------|
  b|-0---0----------3--3--3-3---1-1------------0----0-------------|
  g|-1-------1------2--2--2-2---0--------------1----1------\------|
  d|-2--------------0-----0-0---2----0h2--2p0--2----2------\------|
  a|-2--------------------------3----0h3--3p0--2----2------\------|
  E|-0-----------------------------------------0----0-------------|
     Distortion on     (Chorus Part)              (strum +)
         


  e|----------------------------|---------------------------------|----------------------------|
  b|----------------------------|---------------8p10h8/7---7/5----|----------------------------|
  g|----------------------------|---------7-9------------9--------|--14b-14-14b-14-12/11-------|
  d|--------------4h5p4-7-------|--5-7/9--------------------------|----------------------14----|
  a|---------5h7----------------|---------------------------------|----------------------------|
  E|--3/5h7---------------------|---------------------------------|----------------------------|


  
  e|----------------------------|---------------------------------|----14-15-17-15-14----------|
  b|----------------------------|---------------------15-17-15-15b|15b----------------17-15----|
  g|--11h12-14-12-11-------12---|----11h12p11------16-------------|----------------------------|
  d|-----------------14---------|--------------14-----------------|----------------------------|
  a|--------------------15------|---------------------------------|----------------------------|
  E|----------------------------|---------------------------------|----------------------------|

[ Tab from: http://www.guitartabs.cc/tabs/j/judas_priest/dream_deceiver_tab.html ]
  
  e|----14-14b----14------------|--14-15-14-15-17-17b-17-17b-17---|-17b-17-17b----15-----------|
  b|-17--------17----17----17-17|---------------------------------|------------17----17--------|
  g|--------------------17------|---------------------------------|----------------------------|
  d|----------------------------|---------------------------------|----------------------------|
  a|----------------------------|---------------------------------|----------------------------|
  E|----------------------------|---------------------------------|----------------------------|



  
  e|-14p15p14p12----12----------|-12p14p12p10----10-12-10---------|----------------------------|
  b|-------------15-------------|-------------12----------12-10---|----10----10h12p10/8--------|
  g|----------------------------|---------------------------------|-12----11------------9/-----|
  d|----------------------------|---------------------------------|----------------------------|
  a|----------------------------|---------------------------------|----------------------------|
  E|----------------------------|---------------------------------|----------------------------|



  
  e|-----------------------------|------------------------------|----------------------------|
  b|----8-10-10b-8h10------------|------------------------------|------------------8-10------|
  g|--9---------------9--7h9-----|---------3b-3b-3b1/2.---------|-------------7-9------------|
  d|-------------------------9---|--5h7p5-----------------------|----5-7-7/9-----------------|
  a|-----------------------------|------------------------------|--7-------------------------|
  E|-----------------------------|------------------------------|----------------------------|



  
  e|-----------------------------|--17b-17b-17b-17-15/14--------|-15----15----15-17-14-15----|
  b|--10/12-15-17-17/19-19-20-19-|------------------------13----|----12----12-------------17/|
  g|-----------------------------|------------------------------|----------------------------|
  d|-----------------------------|------------------------------|----------------------------|
  a|-----------------------------|------------------------------|----------------------------|
  E|-----------------------------|------------------------------|----------------------------|



   e|-----------------------------|------------------------------|----------------------------|
   b|---------------8-10-12-------|--8-10-12---8-10-12-15-12-15--|--13-12----12--13-15--------|
   g|--------9-7-9----------9~----|----------9-------------------|--------14------------------|
   d|--/9-9-----------------------|------------------------------|----------------------------|
   a|-----------------------------|------------------------------|----------------------------|
   E|-----------------------------|------------------------------|----------------------------|



   e|-----------------------------|------------------------------|----------------------------|
   b|-13-12----12h13p12-15--------|--13p12/10-13-12-10-----------|-8-10-12-10-8-7-10p8/7---7h8|
   g|-------14--------------------|------------------------------|-----------------------9----|
   d|-----------------------------|------------------------------|----------------------------|
   a|-----------------------------|------------------------------|----------------------------|
   E|-----------------------------|------------------------------|----------------------------|



   e|-----------------------------|------------------------------|--------12~-------17b17p15--|
   b|p7h10p8-7--7p8h7---7---------|------------------------------|-----15--------15---------17|
   g|-----------------9----9p7---7|------------------------------|-14b-------14b--------------|
   d|--------------------------9--|--9-7-5-7-5~--7-9----7--------|----------------------------|
   a|-----------------------------|------------------10---7------|----------------------------|
   E|-----------------------------|------------------------------|----------------------------|
  

    
   
   e|--------12-----12------------|-----12-----------------------|--------------------12------|
   b|-----12----15b----15-12------|--------15-12-------12--------|-----------------12----15p12|
   g|-14b--------------------14---|-14b----------14-12-----------|----11-12-14-14b------------|
   d|-----------------------------|------------------------------|-14-------------------------|
   a|-----------------------------|------------------------------|----------------------------|
   E|-----------------------------|------------------------------|----------------------------|



   e|-------12--------------------|------------------------------|----------------------------|
   b|----12----15b-15b15-12-15----|-10-12-8-10-7-7h8-------------|----------------------------|
   g|-14--------------------------|------------------9p7---------|------------------------7-9-|
   d|-----------------------------|----------------------9-7-----|-------9-----7-9----7-9-----|
   a|-----------------------------|--------------------------10--|7-9-10---9-10----10---------|
   E|-----------------------------|------------------------------|----------------------------|


   
   e|--------7-10-12b-------------|--------------------6b--------|----------------------------|
   b|-7-8-10----------------------|-7b7p5---5--7b7p5------7b7p5--|-7b7-7b7-7b7p5---5----------|
   g|-----------------------------|-------7----------7----------7|---------------7------------|
   d|-----------------------------|------------------------------|----------------------------|
   a|-----------------------------|------------------------------|----------------------------|
   E|-----------------------------|------------------------------|----------------------------|



   
   e|-----------------------------|------------------------------|----------------------------|
   b|-----------------------------|------------------------------|----------------------------|
   g|-----------------------------|------------------------------|----------------------------|
   d|-----------------------------|------------------------------|----------------------------|
   a|-----------------------------|------------------------------|----------------------------|
   E|-----------------------------|------------------------------|----------------------------|
Comments