Judas Priest - Diamonds And Rust Chords & Tabs

 

Diamonds And Rust Chords & Tabs

Judas Priest Chords & Tabs

Version: 1 Type: Tab 0 ratings
1 star 2 stars 3 stars 4 stars 5 stars
comments

Diamonds And Rust Tab

Artist: Judas Priest
Song: "Diamonds And Rust" (written by Joan Baez) as performed live on the concert in 
19.12.2001
From the album "Live In London" (2002)
Tabbed by Nailed Reaper (reap@front.ru) 28.10.2004

I'm sorry for any errors and if you know how to play it right - please mail me.

Both of variations of this song is great, but fast one have been already tabbed by 
Let's try to tab intro of the ballad one.

Tune down 1 whole step.
[ Tab from: http://www.guitartabs.cc/tabs/j/judas_priest/diamonds_and_rust_tab.html ]
Guitar 1 (KK Downing)
d|----7-7----7-7----7-7----7-7---7-7----7-7----7-7----7--|
A|----8------8------8------8-----8------8------8------8--|
F|----9------9------9------9-----9------9------9------9--|
C|----9------9------9------9-----9------9------9------9--|
G|--7-7----7-7----7-7----7-7---7-7----7-7----7-7----7-7--|
D|-0------0------0------0-----0------0-----0------0------|
Guitar 2 (Glenn Tipton)
d|----------------------------------------------------------------|
A|----------------------------------------------------------------|
F|--------------7h9~---7h9--7-5-7-4------4h5--4---4---------------|
C|-----4--5-7\9---------------------5~----------7---5-4~----------|
G|-5h7---------------------------------------------------5-\-7~---|
D|----------------------------------------------------------------|

I'm sorry, but now that's all! I can't transcribe those bleeding chords!!!
Comments