Judas Priest - Cheater Chords & Tabs

 

Cheater Chords & Tabs

Judas Priest Chords & Tabs

Version: 2 Type: Bass Tab 0 ratings
1 star 2 stars 3 stars 4 stars 5 stars
comments

Cheater Bass Tab

Standard Tuning
Ian Hill used a Fender Jazz Bass to record this track.
[ Tab from: http://www.guitartabs.cc/tabs/j/judas_priest/cheater_btab_ver_2.html ]
Intro:
G|----------------------------------|
D|----------------------------------|
A|-7-7-7x----7-7-7/--7-7-7x--7-7-7/-|
E|----------------------------------|

And the whole song:
G|------------------|
D|----------------5-|
A|-7-777-777-77-57--|
E|------------------|


G|------------------|
D|----------7--77-5-|
A|-7-777-77---------|
E|------------------|
Comments