Judas Priest - Call For The Priest Raw Deal Chords & Tabs

 

Call For The Priest Raw Deal Chords & Tabs

Judas Priest Chords & Tabs

Version: 1 Type: Tab 0 ratings
1 star 2 stars 3 stars 4 stars 5 stars
comments

Call For The Priest Raw Deal Tab

   
Band:  Judas Priest
Album: Sin After Sin
Song:  Call For The Priest/Raw Deal

Copyright (c)  (CBS) (1977)
Version 1.0 - (19/02/05)

Transcribed By: Steve
Email:          stephen.elvidge1@ntlworld.com


.  - palm mute           /  - slide up to
\  - slide down to       ~  - vibrato
h  - hammer on           b  - Bend
p  - pull off            Suffixes for bend
t  - tap                 f  - full bend    h - half bend
ph - pinched harmonic    q  - quarter bend t - tap bend
*  - see comment         ^  - Hold bend    r release bend
x  - Stuccatto           ~  - vibrato bend
,  - slight palm mute    () - ghost note, sustained note
"  - tremolo note        <> - Trill

Tunning E A D G B E

 Intro
  Fade in                     Fade in
E[-------------------------------------------------------------------|
B[-------------------------------------------------------------------|
G[-------------------------------------------------------------------|
D[-7--------------(7)---------7--------------(7)---------------------|
A[-------------------------------------------------------------------|
E[-------------------------------------------------------------------|
 [
E[-------------------------------------------------------------------|
B[-------------------------------------------------------------------|
G[-------------------------5--7----------------------5---------------|
D[-------------7-7-5-7p5---5--7----------7-7-5-7p5---5--7------------|
A[-----------0-----------7-------------0-----------7----0------------|
E[-------------------------------------------------------------------|
   Rpt 2 X before drums enter
   Rpt 2 X with drums and bass.  Substitute ending with riff below.

E-------------------------------------|
B-------------------------------------|
G-------------------------------------|
D---7-7-5-7p5---5--------5------------|
A-0-----------7-3----5-7---7-6-5------|
E-------------------------------------|

 Main riff / Verse riff 
                                              ~~~~
E-----------------------------------------------------|
B-----------------------------------------------------|
G-----------------------------------------------------|
D-----------------------------------------------------|
A---7-7-5-7---7-7-5----------7-7-5-7--5-8-7-----------|
E-0---------0-------7-5-6--0----------3-6-5-3-5-3p0---|Rpt 2 X
 Rpt verse riff 4 X for verse.

 Chorus

 Guitar 1
E[--------------------------------------------|
B[--------------------------------------------|
G[--------------------5-------------5---------|
D[-7-7-5-7----7-7-5-7---7-7-5-7-5---5-2--5----|
A[--------------------------------7---0--3----|
E[--------------------------------------------|
 [Guitar 2
 [       ~~~~~~ ~~~~~  ~~~~~  ~~~~~~~~~~~~~~~
E[--------------------------------------------|
B[--------------------------13----------------|
G[-------5-----9-----12-----------------------|
D[--------------------------------------------|
A[--------------------------------------------|
E[--------------------------------------------|Rpt 2 X

 Guitar 1
E[--------------------------------------------|
B[--------------------------------------------|
G[--------------------5-------------5-7-------|
D[-7-7-5-7----7-7-5-7---7-7-5-7-5---5-7--5----|
A[--------------------------------7------3----|
E[--------------------------------------------|
 [Guitar 2
 [       ~~~~~~ ~~~~~  ~~~~~  ~~~~~~~~~~~~~~~
E[--------------------------------------------|
B[--------------------------13----------------|
G[-------5-----9-----12-----------------------|
D[--------------------------------------------|
A[--------------------------------------------|
E[--------------------------------------------|
[ Tab from: http://www.guitartabs.cc/tabs/j/judas_priest/call_for_the_priest_raw_deal_tab.html ]
 Rpt Verse and Chorus
 
 Interlude Riff                           ~~~~~~~~~~~      h
E-------------------------------------------------------------------|
B-------------------------------------7b----------------------------|
G-5------------(5)--------------5---5-7b-----------------5-7--------|
D-3------------(3)------------7---7---7b----------------------------|
A-------------------------------------------------------------------|
E-------------------------------------------------------------------|
                                                             Rpt 3 X
E-------------------------------------------------------------------|
B-------------------------------------------------------------------|
G-5------------(5)------------7br5---5------------------------------|
D-3------------(3)-----------------7---7-5---5----------------------|
A------------------------------------------7---7-6-5-6-5\3-5-3\2----|
E-------------------------------------------------------------------|

 Backing for guitar solo
 Riff A
                         ~~~~~~~
E-------------------------------|
B-------------------------------|
G-------------------------------|
D-------------------------------|
A-2-2--2-2--2-2----------7-(7)\--|
E-0-0--0-0--0-0--0-3p0----------|Rpt 6 X

 Riff B
E------------------------------------------------------|
B------------------------------------------------------|
G------------------------------------------------------|
D------------------------------------------------------|
A-5-5--5-5--5-5--5-5-5--5----7-7--7-7--7-7--7-7-7--7---|
E-3-3--3-3--3-3--3-3-3--3----5-5--5-5--5-5--5-5-5--5---|

 Rpt Riff A 6 X
 Rpt Riff B
 Rpt Riff A 2 X
 Rpt Interlude Riff once with this held note
   ~~~~~~~~~~~~~~~~~~~~~~~~~~~~~~~~~~~~~~~~~~~~~~~~~ to feed back
E-------------------------------------------------------------------|
B-------------------------------------------------------------------|
G-5--------------(5)------------------------------------------------|
D-------------------------------------------------------------------|
A-------------------------------------------------------------------|
E-------------------------------------------------------------------|

E-------------------------------------------------------------------|
B-------------------------------------------------------------------|
G-5------------(5)-------/7-7-5-7-5---5-----------------------------|
D-3------------(3)------7-----------7---2-7-5---5---5---5-----------|
A---------------------------------------0-----7---7-3/7---7-6-5-----|
E---------------------------------------------------------------3---|

 Rpt verse and chorus

 Outro

 Guitar 1
E[----------------------------------------------------|
B[----------------------------------------------------|
G[---5---7---5---7-----------5---7---5---7------------|
D[---5---7---5---7-5---------5---7---5---7-5----------|
A[-0---0---0---0-----5-6-7-0---0---0---0-----5-6-7----|
E[----------------------------------------------------|
 [Guitar 2
E[----------------------------------------------------|
B[----------------------------------------------------|
G[-2--------(2)---------------------------------------|
D[-2--------(2)------------5--------(5)---------------|
A[-0--------(0)------------5--------(5)---------------|
E[-------------------------3--------(3)---------------|

 Guitar 1
E[-------------------------------------------------------|
B[-------------------------------------------------------|
G[---5---7---5---7---------------------------------------|
D[---5---7---5---7-5-------7/9-9-9\7-7-7-7\5-5-5-5\4-----|
A[-0---0---0---0-----5-8-7---------------------------5-6-|
E[-------------------------------------------------------|
 [Guitar 2
E[-------------------------------------------------------|
B[-------------------------------------------------------|
G[-------------------------9---------------5-------4-----|
D[-3--------(3)------------9---------------5-------4-----|
A[----------(3)------------7---------------3-------2-----|
E[-1--------(1)------------0-----------------------------|Rpt 2 X

 Both guitars together
E----------------------------------------------------|
B----------------------------------------------------|
G---5---7---5---7-----------5---7---5---7------------|
D---5---7---5---7-5---------5---7---5---7-5----------|
A-0---0---0---0-----5-6-7-0---0---0---0-----5-6-7----|
E----------------------------------------------------|

E-------------------------------------------------------|
B-------------------------------------------------------|
G---5---7---5---7---------------------------------------|
D---5---7---5---7-5-------7/9-9-9\7-7-7-7\5-5-5-5\4-----|
A-0---0---0---0-----5-8-7---------------------------5-6-|
E-------------------------------------------------------|Rpt 7 X

 The 7th time the riff slows down and the guitars play
 this riff at the very end
                                          Pick scrapes etc
E-------------------------------------------------------------------|
B-------------------------------------------------------------------|
G-------------------------------------------------------\-\---------|
D-9--9--9--9\-7--7--7--7\-5--5--5--5-\4--4---4---4--(4)--\-\--2-2---|
A-7--7--7--7\-5--5--5--5\-3--3--3--3-\2--2---2---2--(2)-------0-0---|
E-------------------------------------------------------------------|




END
Comments