Judas Priest - Breaking The Law Chords & Tabs

 

Breaking The Law Chords & Tabs

Judas Priest Chords & Tabs

Version: 5 Type: Tab 0 ratings
1 star 2 stars 3 stars 4 stars 5 stars
comments

Breaking The Law Tab

                               JUDAS PRIEST
                             BREAKING THE LAW
                              BRITISH STEEL


KEY: \ SLIDE DOWN

INTRO     2X
e----------------------------------------------I
B----------------------------------------------I 
G----------------------------------------------I
D----------------------------------------------I
A-0-2-3---0-2-3--0-2-3-------0-------0--3-2----I
E-----------------------1--3----1--3-----------I

VERSE        2X
e--------------------------------------------------I
B-2-------------------------------X-X-2------------I
G-2--------------X-X-5------------X-X-2------------I
D-2--------------X-X-5---X-X-5----X-X-2------------I
A-0--------------X-X-3---X-X-5----X-X-0------------I
E------------------------X-X-3---------------------I
 
e------------------------------------------------------------I
B------------------------------------------------------------I
G-10-------------------------10------------------------------I
D-10-------------------------10--10--------------------------I
A-8--------------------------8---10--------------------------I
E--------------------------------8---------------------------I
[ Tab from: http://www.guitartabs.cc/tabs/j/judas_priest/breaking_the_law_tab_ver_5.html ]
e-------------------------------------------------------I
B---------------------------2---------------------------I
G-10------------------------2---------------------------I
D-10------------------------2---------------------------I
A-8-------------------------0---------------------------I
E-------------------------------------------------------I

CHORUS                 2X
e---------------------------------------------------------------------I
B--------------------------------\10---------------------------\10\10-I
G--------------------------------\9----------------------------\9-\9--I
D---------------------------------------------------------------------I
A--0-0-0-0-0-0-0-0-0-0-0-0-0-0-0-----0-0-0-0-0-0-0-0-0-0-0-0-0-0------I
E---------------------------------------------------------------------I
PM . . . . . . . . . . . . . . .     . . . . . . . . . . . . . . 


VERSE

CHORUS

BRIDGE            3X
e------------------------------------------------I
B------------------------------------------------I
G-5-------------5-3------------------------------I
D-5-------------5-3------------------------------I
A-3-------------3-1------------------------------I
E------------------------------------------------I

    2X
e---------------------------------------------------I
B---------------------------------------------------I
G-7---10--5--7--10-12-------------------------------I
D-7---10--5--7--10-12-------------------------------I
A-5---8---3--5--8--10-------------------------------I
E---------------------------------------------------I

THEN INTRO AGAIN LOTS OF TIMES
Comments