Judas Priest - Breaking The Law Chords & Tabs

 

Breaking The Law Chords & Tabs

Judas Priest Chords & Tabs

Version: 2 Type: Tab 1 rating
1 star 2 stars 3 stars 4 stars 5 stars
comments

Breaking The Law Tab

   
intro                                                                      let ring---------
e---------------------------------------------------------------------------
b---------------------------------------------------------------------------
g---------------------------------------------------------------------------
d---------------------------------------------------------------------------
a-0-2-3-0-2-3-0-2-3-----0-----0---2-3--0-2-3-0-2-3-0-2-3-----0-----0---2-3-0
E-------------------1-3---1-3---3------------------------3-1---3-1---3------
play verse twice
verselet chord ring     let chord ring
e--------------------------------------
b--------------------------------------
g---2---------------5---2--------------
d---2---------------5-5-2--------------
a---0---------------3-5-0--------------
E---------------------3----------------
play after second time through verse
e-----------------------------------------------------------------------------
b-----------------------------------------------------------------------------
g----------------------5-5-5-5-5-5-5-5-5-5------------------------------------
d3-3-3-3-3-3-3-3-3-3-3-5-5-5-5-5-5-5-5-5-5-3-3-3-3-3-3-3-3-3-3-2-2-2-2-2-2-2-2
a3-3-3-3-3-3-3-3-3-3-3-3-3-3-3-3-3-3-3-3-3-3-3-3-3-3-3-3-3-3-3-2-2-2-2-2-2-2-2
E1-1-1-1-1-1-1-1-1-1-1---------------------1-1-1-1-1-1-1-1-1-1-0-0-0-0-0-0-0-0
chorus play twice
e----------------------------------------
b----------------------------------------
g2-2-2-2-2-2-2-2--10-2-2-2-2-2-2-2-2--1010
d2-2-2-2-2-2-2-2--9--2-2-2-2-2-2-2-2--9 9
a0-0-0-0-0-0-0-0--7--0-0-0-0-0-0-0-0--7 7
E----------------------------------------
second verse play same as the first verse one time, then second time around play this
   let ring---------     let ring
e------------------------
b------------------------
g-2-----------------5-7-9
d-2-----------------5-7-9
a-0-----------------3-5-7
E------------------------
play second part of verse
play chorus
outro play twice
e-------------------
b-------------------
g-----5----------5-7
d-7---3---5--7---3-5
a-5-------3--5------
E-------------------
play intro as ending


[ Tab from: http://www.guitartabs.cc/tabs/j/judas_priest/breaking_the_law_tab_ver_2.html ]
Comments