Judas Priest - Breaking The Law Chords & Tabs

 

Breaking The Law Chords & Tabs

Judas Priest Chords & Tabs

Version: 3 Type: Bass Tab 0 ratings
1 star 2 stars 3 stars 4 stars 5 stars
comments

Breaking The Law Bass Tab

I know this tab is right because is sounds right to me

Tabbed by Dale


Intro

|---------------------------------------------------------------|
|---------------------------------------------------------------|
|---------------------------------------------------------------|
|-5-5-5-5-5-5-5-5-5-5-5-5-5-5-5-1-1-1-1-1-1-1-1-3-3-3-3-3-3-3-3-|

|-----------------------------------------------------------------|
|-----------------------------------------------------------------|
|------------------------------------------------------------3--2-|
|-5-5-5-5-5-5-5-5-5-5-5-5-5-5-5-1-1-1-1-1-1-1-1--3---5---3--------|

1st verse

|-------------------------------------------------------------|
|?-----------------------------------------------------------?|
|?--------------------------------3-3-3----------------------?|
|-5-5-5-5-5-5-5-5-5-5-5-5-5-5-5-5--------3-3-3-3-5-5-5-5-5-5--|

Pre-Chours

|---------------------------------------------------------------------------|
|---------------------------------------------------------------------------|
|---------------------3-3-3-3-3-3-3-3-3-3-----------------------------------|
|-1-1-1-1-1-1-1-1-1-1---------------------1-1-1-1-1-1-1-1-1-1-0-0-0-0-0-0---|


chours
|---------------------------------------------------------------------------|
|?-------------------------------7/-0-------------------------------7-7/-0--|
|?-0-0-0-0-0-0-0-0-0-0-0-0-0-0-0------0-0-0-0-0-0-0-0-0-0-0-0-0-0-0---------|
|---------------------------------------------------------------------------|

2nd Verse

|-------------------------------------------------------------|
|-------------------------------------------------------------|
|---------------------------------3-3-3-----------------------|
|-5-5-5-5-5-5-5-5-5-5-5-5-5-5-5-5--------3-3-3-3-5-5-5-5-5-5--|

Pre-chours
|--------------------------------------------------------------|
|--------------------------------------------------------------|
|---------------------------------3-3-3-3-5-5-5-5-7-7-7-7/0----|
|-5-5-5-5-5-5-5-5-5-5-5-5-5-5-5-5------------------------------|

[ Tab from: http://www.guitartabs.cc/tabs/j/judas_priest/breaking_the_law_btab_ver_3.html ]
|--------------------------------------------------------------------------------|
|--------------------------------------------------------------------------------|
|---------------------3-3-3-3-3-3-3-3-3-3----------------------------------------|
|-1-1-1-1-1-1-1-1-1-1---------------------1-1-1-1-1-1-1-1-1-1-0-0-0-0-0-0-0/12/0-|

chours

|-------------------------------------------------------------------------|
|-------------------------------7/-0-------------------------------7-7/-0-|
|-0-0-0-0-0-0-0-0-0-0-0-0-0-0-0------0-0-0-0-0-0-0-0-0-0-0-0-0-0-0--------|
|-------------------------------------------------------------------------|


|----------------------------------------------------------------------|
|-------------------------------7/-0-------------------------------7-7-|
|-0-0-0-0-0-0-0-0-0-0-0-0-0-0-0------0-0-0-0-0-0-0-0-0-0-0-0-0-0-0-----|
|----------------------------------------------------------------------|

part x

|--------------------------------------------------------------------|X4
|?-------------------------------------------------------------------|
|?-------------------------------------------------------------------|
|--7-7-7-7-7-7-7-7-7-7-7-7-7-7-7-7-5-5-5-5-5-5-5-5-5-5-5-5-5-5-5-5---|

|---------------------------------------------------------------------------------|
|?--------------------------------------------------------------------------------|
|?-----------------------8-8-8---------------------------------8-8-8-10-10-10-10--||fill
|10-10-10-10-10-10-10-10-------8-8-8-8-10-10-10-10-10-10-10-10--------------------|

|-------------------------------------------------------------|
|-------------------------------------------------------------|
|-------------------------------------------------------------|
|--------0--------5--------5--5--5--5--1-1-1-1--3-3-3-3-3-3-3-|

outro

|---------------------------------------------------------------|  X5
|?-------------------------------------------------------------?|
|?-------------------------------------------------------------?|
|-5-5-5-5-5-5-5-5-5-5-5-5-5-5-5-1-1-1-1-1-1-1-1-3-3-3-3-3-3-3-3-|


|-------------------------------------------------------------------|
|-------------------------------------------------------------------|
|------------------------------------------------------------3--2---|
|-5-5-5-5-5-5-5-5-5-5-5-5-5-5-5-1-1-1-1-1-1-1-1--3---5---3--------5-|

thats's it have fun
Comments