Judas Priest - Bloodstone Chords & Tabs

 

Bloodstone Chords & Tabs

Judas Priest Chords & Tabs

Version: 1 Type: Tab 0 ratings
1 star 2 stars 3 stars 4 stars 5 stars
comments

Bloodstone Tab

   
 Judas Priest
Bloodstone
  
Gtr I (E A D G B E) - 'Untitled'
Gtr II (E A D G B E) - 'Untitled'

 Intro
  Q=120
 4/4
  Gtr I
      PM                   PM
|--------------------|-----------------------------|
|-7-----/9-(9)-------|-----------------------------|
|---6----------6-----|-------7-6-------------------|
|-----4--------------|---------7-(7)-6--7--6h7p6---|
|----------------9---|-----9-----(7)-7-(7)-------7-|
|------------------7-|-(7)-------------------------|


      PM                   PM   PM      PM  ~~~
|--------------------|------------------------------|
|-7-----/9-(9)-------|------------------------------|
|---6----------6-----|-------7-----/10----/13-(13)\-|
|-----4--------------|---------(9)-----11-----------|
|----------------9---|-----9------------------------|
|------------------7-|-(7)--------------------------|


      PM                   PM
|--------------------|-----------------------------|
|-7-----/9-(9)-------|-----------------------------|
|---6----------6-----|-------7-6-------------------|
|-----4--------------|---------7-(7)-6--7--6h7p6---|
|----------------9---|-----9-----(7)-7-(7)-------7-|
|------------------7-|-(7)-------------------------|


      PM
|-------4-(4)---------|---------------------||
|-7-------------------|---------------------||
|---6---------4-2-4s6-|-(6)-4-2-4-(4)-2-----||
|-----4---------------|-----------------4-2-||
|---------------------|---------------------||
|---------------------|---------------------||


 Pre-Verse
  Gtrs I, II
                             ~~~~~~~~~
|---------------------|---------------|
|-5--4--2-------------|-2--2----------|
|-4--4--2-------------|-2--2----------|
|---------4-(4)-------|------4----(4)-|
|---------------2h3h4-|---------------|
|---------------------|---------------|


                             ~   PM-------------|
|---------------------|-----------------------------|
|-5--4--2-------------|-2--2------------------------|
|-4--4--2-------------|-2--2------------------------|
|---------4-(4)-------|------4----------------------|
|---------------2h3h4-|-----------------------------|
|---------------------|---------(0)h(2)h(5)p(2)p(0)-|


                             ~~~~~~~~~
|---------------------|---------------|---------------|-------------||
|-5--4--2-------------|-2--2----------|-5--4--2-------|-------------||
|-4--4--2-------------|-2--2----------|-4--4--2-------|-------------||
|---------4-(4)-------|------4----(4)-|---------4-2-2-|-(2)-------4-||
|---------------2h3h4-|---------------|-------------2-|-(2)-------4-||
|---------------------|---------------|-------------0-|-(0)-------2-||


 Verse
  $
                                           PM                              PM
|-------------|-------------|------------------|-----------------------------|
|-------------|-------------|------------------|-----------------------------|
|-----------2-|-(2)-------1-|-(1)----(1)-2-----|----------2b2.5--(2)---------|
|-(4)-------2-|-(2)-------2-|-(2)----(2)-----4-|-(4)--(4)------------4-2-----|
|-(4)---------|-------------|----------------4-|-(4)--(4)----------------4-0-|
|-(2)---------|-------------|--------------0-2-|-(2)--(2)--------------------|


                                         PM                              PM
|-----------|-------------|------------------|-----------------------------||
|-----------|-------------|------------------|-----------------------------||
|---------2-|-(2)-------1-|-(1)----(1)-2-----|----------2b2.5--(2)---------||
|-4-------2-|-(2)-------2-|-(2)----(2)-----4-|-(4)--(4)------------4-2-----||
|-4---------|-------------|----------------4-|-(4)--(4)----------------4-0-||
|-2---------|-------------|--------------0-2-|-(2)--(2)--------------------||


 Bridge
                   PM------|
|-----------|------------------|--------------|--------------|
|-----------|------------------|-------2------|-------4------|
|-----------|------------------|-------2------|-------4------|
|-2-------2-|-(2)------------4-|-(4)--------4-|-(4)--------2-|
|-2-------2-|-(2)--2-2-2-2-2-4-|-(4)--------4-|-(4)--------2-|
|-0-------0-|-(0)--0-0-0-0-0-2-|-(2)--------2-|-(2)--------0-|


                     PM------|
|-------------|------------------|-------------|--------------------------||
|-------------|------------------|-------------|--------------------------||
|-------------|----------------6-|-(6)-------6-|-(6)-(6)s4-2-4-(4)-2------||
|-(2)-------2-|-(2)------------6-|-(6)-------6-|-(6)-(6)s4-2-4-(4)-2-4-2--||
|-(2)-------2-|-(2)--2-2-2-2-2-4-|-(4)---------|---------------------4-2--||
|-(0)-------0-|-(0)--0-0-0-0-0---|-------------|--------------------------||


 Chorus
                             ~~~~~~~~~
|---------------------|---------------|
|-5--4--2-------------|-2--2----------|
|-4--4--2-------------|-2--2----------|
|---------4-(4)-------|------4----(4)-|
|---------------2h3h4-|---------------|
|---------------------|---------------|


                             ~   PM-------------|
|---------------------|-----------------------------|
|-5--4--2-------------|-2--2------------------------|
|-4--4--2-------------|-2--2------------------------|
|---------4-(4)-------|------4----------------------|
|---------------2h3h4-|-----------------------------|
|---------------------|---------(0)h(2)h(5)-(0)h(2)-|


                           To Coda                    D.S. al Coda
                             ~~~~~~~~~
|---------------------|---------------|---------------|-------------||
|-5--4--2-------------|-2--2----------|-5--4--2-------|-------------||
|-4--4--2-------------|-2--2----------|-4--4--2-------|-------------||
|---------4-(4)-------|------4----(4)-|---------4-2-2-|-(2)-------4-||
|---------------2h3h4-|---------------|-------------2-|-(2)-------4-||
|---------------------|---------------|-------------0-|-(0)-------2-||


  &
  Gtr I
|---------------|-------------------------||
|-5--4--2-------|-------------------------||
|-4--4--2-----6-|-(6)-(6)s4-2-4-(4)-2-----||
|---------4-2-6-|-(6)-(6)s4-2-4-(4)-2-4-2-||
|---------------|---------------------4-2-||
|---------------|-------------------------||
|
| Gtr II
|---------------|-------------------------||
|---------------|-------------------------||
|---------------|-------------------------||
|---------------|---------------------4-7-||
|---------------|-------------------------||
|---------------|-------------------------||


 Guitar Break
|-------------------------|---------------------|
|-------------------------|---------------------|
|-2-------4-5------7------|---4---(4)s5-2-------|
|-2-------4-5------7------|---4---(4)s5-2-------|
|-------------------------|---------------------|
|-------------------------|---------------------|
|
|                                          PM
|-------------------------|---------------------|
|-------------------------|---------------------|
|-------------------------|-----0-------2----5--|
|-4b5r(4)-5-7-4b5r(4)-5-7-|-/10---------2----5--|
|-------------------------|----------------0----|
|-------------------------|---------------------|


|---------------------------|---------------------------|
|---------------------------|---------------------------|
|-2-----4-5-------7---------|-4------(4)s=5---2---------|
|-2-----4-5-------7---------|-4------(4)s=5---2---------|
|---------------------------|---------------------------|
|---------------------------|---------------------------|
|
|                                                 PM
|-------------------7b8r(7)p|=5-------------------------|
|---------------------------|---------------------------|
|---4b5---4b5r(4)p2---------|---------------------------|
|---------------------------|-------------------5-4-5-7-|
|---------------------------|---2b3======(2)rp0---------|
|---------------------------|---------------------------|


|-------------------------|-----------------------|
|-------------------------|-----------------------|
|-2-------4-5------7------|---4---(4)s5-2---------|
|-2-------4-5------7------|---4---(4)s5-2---------|
|-------------------------|-----------------------|
|-------------------------|-----------------------|
|
|                                          PM|
|-------------------------|-----------------------|
|-------------------------|-----------------------|
|-------------------------|-----0-------2------5--|
|-4b5r(4)-5-7-4b5r(4)-5-7-|-/10---------2------5--|
|-------------------------|----------------0-0----|
|-------------------------|-----------------------|


|-----------------------|----------||
|-----------------------|----------||
|-2-----4-5-------7-----|--4\------||
|-2-----4-5-------7-----|--4\------||
|-----------------------|----------||
|-----------------------|----------||
|
|-----------------------|----------||
|-----------------------|----------||
|---4b5---4b5r(4)p2p0-4-|-(4)\-----||
|---------------------4-|-(4)\-----||
|-----------------------|----------||
|-----------------------|----------||


 Guitar Solo
|-------------------------------------------------------------------------|
|-------------------------------------------------------------------------|
|-------------------------------------------------------------------------|
|--2-----------4---------------5-----------------------7------------------|
|--2-----------4---------------5-----------------------7------------------|
|-------------------------------------------------------------------------|
|
|-----------------------12----------------12----------------12------------|
|-15b17==(15)-15r-15p12----12-15b17-15p12----12-15b17-15p12----12-15b19===|
|-------------------------------------------------------------------------|
|-------------------------------------------------------------------------|
|-------------------------------------------------------------------------|
|-------------------------------------------------------------------------|

[ Tab from: http://www.guitartabs.cc/tabs/j/judas_priest/bloodstone_tab.html ]
|---------------------------------------------------------------------|
|---------------------------------------------------------------------|
|---------------------------------------------------------------------|
|---4---(4)s==5--2----------------------------------------------------|
|---4---(4)s==5--2----------------------------------------------------|
|---------------------------------------------------------------------|
|
|---------------------------------------------------------------------|
|-(15)------(15)r==15p12-------12h15p12-------12h15p12-------12h15p12-|
|------------------------14b16----------14b16----------14b16----------|
|---------------------------------------------------------------------|
|---------------------------------------------------------------------|
|---------------------------------------------------------------------|


|---------------------------------------------------------------------|
|---------------------------------------------------------------------|
|---------------------------------------------------------------------|
|--2------------4--------5--------------7-----------------------------|
|--2------------4--------5--------------7-----------------------------|
|---------------------------------------------------------------------|
|
|------------------------------------------------------------15p12----|
|-15p12-----------------------15p12----15b17-(15)p(12)-15p12-------15-|
|-------14p12-(14)p(12)-14b16-------14--------------------------------|
|-------------(14)p(12)-----------------------------------------------|
|---------------------------------------------------------------------|
|---------------------------------------------------------------------|


|-------------------------------------------------|
|-------------------------------------------------|
|-------------------------------------------------|
|--4------------(4)s5--2--------------------------|
|--4------------(4)s5--2--------------------------|
|-------------------------------------------------|
|
|----15-(15)b19-------(0)p-17b19.5==(17)r=17p14---|
|-17----------------------------------------------|
|-------------------------------------------------|
|-------------------------------------------------|
|-------------------------------------------------|
|-------------------------------------------------|


|---------------------------------------------------------------------------|
|---------------------------------------------------------------------------|
|---------------------------------------------------------------------------|
|--2-------------4----------5-----------------7-----------------------------|
|--2-------------4----------5-----------------7-----------------------------|
|---------------------------------------------------------------------------|
|
|-14h15h17p14-15p==14-------------------------------------------------------|
|---------------------17-19p==15-17p=15s14h15p==14s12h14p12-----------------|
|-----------------------------------------------------------14h16p=14s13h14p|
|---------------------------------------------------------------------------|
|---------------------------------------------------------------------------|
|---------------------------------------------------------------------------|


|-------------------------------------------------------------------|
|-------------------------------------------------------------------|
|-------------------------------------------------------------------|
|--4------------(4)s=5-------2--------------------------------------|
|--4------------(4)s=5-------2--------------------------------------|
|-------------------------------------------------------------------|
|
|-------------------------------------------------------------------|
|-------------------------------------------------------------------|
|-13s11h13p11s9h====11p9--------------------------------------------|
|------------------------12h14p12s11h12p11s9h11p9s7h9---------------|
|-----------------------------------------------------10h12p10s9----|
|-------------------------------------------------------------------|


|--------------------------------------|---------------------------||
|--------------------------------------|---------------------------||
|--------------------------------------|---------------------------||
|--2------------4------5-------7-------|--4----(4)s=5--2-----------||
|--2------------4------5-------7-------|--4----(4)s=5--2-----------||
|--------------------------------------|---------------------------||
|
|--------------------------------------|---------------------------||
|--------------------------------------|---------------------------||
|---------------------------/7S9S11S12S|=14S16S====14S12S11S9S7S5\-||
|-----------------9----9-10------------|---------------------------||
|-10----9-10-12-----12-----------------|---------------------------||
|----12--------------------------------|---------------------------||


 Interlude
                        PM|
|------------|--------------|-------------------------------|
|------------|--------------|-------------------------------|
|------------|--------------|-------------------------------|
|-4---2----4-|--------------|--4----------2-----------4-----|
|-2---0----2-|--2--4----2-2-|--2----------0-----------2-----|
|------------|--0--2--------|-------------------------------|
|
|                              <
|                                               T     T
|------------|--------------|-------------------------------|
|------------|--------------|-(0)-----(0)-2-3-2-3p(2)-5p(2)-|
|------------|--------------|-----(2)-----------------------|
|------------|--------------|-------------------------------|
|------------|--------------|-------------------------------|
|------------|--------------|-------------------------------|


                                            PM|
|--------------------------------------------------|
|--------------------------------------------------|
|--------------------------------------------------|
|--------------------------------------------------|
|-------2-----------4-----------------------4--4---|
|-------0-----------2------------------------------|
|
| T     T     T     T     T     T     T     T
|--------------------------------------------------|
|-3p(2)-5p(2)-7p(2)-5p(2)-7p(2)-8p(2)-7p(2)-8p(2)--|
|--------------------------------------------------|
|--------------------------------------------------|
|--------------------------------------------------|
|--------------------------------------------------|


|--------------------------------------------------------|
|--------------------------------------------------------|
|--------------------------------------------------------|
|--6-----------------------------------------------6-----|
|--4-------------------6---------------------------4-----|
|----------------------4---------------------------------|
|
|  T     T      T      T      T      T      T      T
|--------------------------------------------------------|
|-10p(2)-8p(2)-10p(2)-12p(2)-10p(2)-12p(2)-14p(2)-12p(2)-|
|--------------------------------------------------------|
|--------------------------------------------------------|
|--------------------------------------------------------|
|--------------------------------------------------------|


                                                    PM|
|---------------------------------------------------------|
|---------------------------------------------------------|
|---------------------------------------------------------|
|---------------------------------------------------------|
|---------4-------------6---------------------------4--4--|
|---------2-------------4---------------------------------|
|
|  T      T      T      T      T      T      T      T
|---------------------------------------------------------|
|-14p(2)-16p(2)-17p(2)-16p(2)-17p(2)-19p(2)-17p(2)-19p(2)-|
|---------------------------------------------------------|
|---------------------------------------------------------|
|---------------------------------------------------------|
|---------------------------------------------------------|


|---------------------------------------------------------|
|---------------------------------------------------------|
|---------------------------------------------------6-----|
|--6--------------------4---------------------------6-----|
|--4--------------------2---------------------------------|
|---------------------------------------------------------|
|
|  T      T      T      T      T      T      T      T
|---------------------------------------------------------|
|-21p(2)-19p(2)-18p(2)-19p(2)-21p(2)-19p(2)-18p(2)-19p(2)-|
|---------------------------------------------------------|
|---------------------------------------------------------|
|---------------------------------------------------------|
|---------------------------------------------------------|


|--------------------------------------------------------------||
|--------------------------------------------------------------||
|-(6)----(6)s=4------2------4-----(4)-----2--------------------||
|-(6)----(6)s=4------2------4-----(4)-----2------4------2------||
|------------------------------------------------4------2------||
|--------------------------------------------------------------||
|
|  T          T      T      T      T      T      T      T
|--------------------------------------------------------------||
|-21p(2)-----19p(2)-17p(2)-19p(2)-21p(2)-19p(2)-21p(2)-22p(2)--||
|--------------------------------------------------------------||
|--------------------------------------------------------------||
|--------------------------------------------------------------||
|--------------------------------------------------------------||


   Out-Chorus
                                   ~~~~~~~~~
||--17b19-------------------|---------------|
||o--5-----4--2-------------|-2--2----------|
||---4-----4--2-------------|-2--2----------|
||--------------4-(4)-------|------4----(4)-|
||o-------------------2h3h4-|---------------|
||--------------------------|---------------|


                             ~   PM-------------|
|---------------------|-------------------------------|
|-5--4--2-------------|-2--2--------------------------|
|-4--4--2-------------|-2--2--------------------------|
|---------4-(4)-------|------4------------------------|
|---------------2h3h4-|-------------------------------|
|---------------------|---------(0)h(2)h(5)-(0)h(2)---|


                             ~~~~~~~~~
|---------------------|---------------|
|-5--4--2-------------|-2--2----------|
|-4--4--2-------------|-2--2----------|
|---------4-(4)-------|------4----(4)-|
|---------------2h3h4-|---------------|
|---------------------|---------------|


                                           3x
|---------------|--------------------------||-------*|
|-5--4--2-------|-------------------------o||-------*|
|-4--4--2-----6-|-(6)-(6)s4-2-4-(4)-2------||-------*|
|---------4-2-6-|-(6)-(6)s4-2-4-(4)-2-4-2--||-------*|
|---------------|---------------------4-2-o||-4-----*|
|---------------|--------------------------||-2-----*|



Comments