Judas Priest - Beyond The Realms Of Death Chords & Tabs

 

Beyond The Realms Of Death Chords & Tabs

Judas Priest Chords & Tabs

Version: 1 Type: Bass Tab 0 ratings
1 star 2 stars 3 stars 4 stars 5 stars
comments

Beyond The Realms Of Death Bass Tab

standard tuning

G||-------------------------------------------------|
D||-------------------------------------------------|
A||------------8----------5----------2--------------|
E||-14/7----------5----------3----------0----0--2---|

|-------------------------------------------------|
|-------------------------------------------------|
|----7-------8----------5----------2--------------|
|-9-------------5----------3----------0----0--2---|

|-------------------------------------------------|
|-------------------------------------------------|
|----7-------8----------5----------2--------------|
|-9-------------5----------3----------0----0--2---|

|--------------------------------------------|
|--------------------------------------------|
|----7-------8----------5----------2---------|
|-9-------------5----------3----------0------|

|---------------------------------------|
|---------------------------------------|
|----------------------------1-2-3-5--4-|
|-5-7---7--5-7---7--5-7---7-------------|

|-------------------------------------------------|
|-------------------------------------------------|
|----7-------8----------5----------2--------------|
|-9-------------5----------3----------0----0--2---|

|-------------------------------------------------|
|-------------------------------------------------|
|----7-------8----------5----------2--------------|
|-9-------------5----------3----------0----0--2---|

|-------------------------------------------------|
|-------------------------------------------------|
|----7-------8----------5----------2--------------|
|-9-------------5----------3----------0----0--2---|

|--------------------------------------------|
|--------------------------------------------|
|----7-------8----------5----------2---------|
|-9-------------5----------3----------0------|

|---------------------------------------|
|---------------------------------------|
|----------------------------1-2-3-5--4-|
|-5-7---7--5-7---7--5-7---7-------------|

|---------------------------------------|
|---------------------------------------|
|----------------------------1-2-3-5--4-|
|-5-7---7--5-7---7--5-7---7-------------|

|---------------------------------------|
|---------------------------------------|
|----------------------------1-2-3-5--4-|
|-5-7---7--5-7---7--5-7---7-------------|

|---------------------------------------|
|---------------------------------------|
|----------------------------1-2-3-5--4-|
|-5-7---7--5-7---7--5-7---7-------------|

|-----------------|
|-----------------|
|-----------------|
|-3h5-5-5-5-5-5-5-|

|-----------------|
|-----------------|
|-----------------|
|-3h5-5-5-5-5-5-5-|

|-----------------|
|-----------------|
|-----------------|
|-3h5-5-5-5-5-5-5-|

|-----------------|
|-----------------|
|-----------------|
|-3h5-5-5-5-5-5-5-|

|-------------------|
|-------------------|
|-------------------|
|-5h7-7-7-7-7-7-7-7-|

|-------------------|
|-------------------|
|-------------------|
|-5h7-7-7-7-7-7-7-7-|

|-------------------|
|-------------------|
|-------------------|
|-5h7-7-7-7-7-7-7-7-|

|-------------------|
|-------------------|
|-------------------|
|-5h7-7-7-7-7-7-7-7-|


|---------------------------------------|
|---------------------------------------|
|----------------------------1-2-3-5--4-|
|-5-7---7--5-7---7--5-7---7-------------|

|---------------------------------------|
|---------------------------------------|
|----------------------------1-2-3-5--4-|
|-5-7---7--5-7---7--5-7---7-------------|

|----------------------------------------------------|
|----------------------------------------------------|
|----------------------------------------------------|
|-7--7-7-------5--5-5-------3--3-3-------0--0-0--2---|
[ Tab from: http://www.guitartabs.cc/tabs/j/judas_priest/beyond_the_realms_of_death_btab.html ]
something like this throught the guitar solo, I dont know how many
times he plays it.

|---------------------------------------------------------------------|
|----------9--------------7--------------7------------5---------------|
|-------------7--------------5--------------5------------3------------|
|-7--7-7---------5--5-5---------3--3-3---------3--3---------0--0-0--2-|

|-------------------------------------------------|
|-------------------------------------------------|
|----7-------8----------5----------2--------------|
|-9-------------5----------3----------0----0--2---|

|-------------------------------------------------|
|-------------------------------------------------|
|----7-------8----------5----------2--------------|
|-9-------------5----------3----------0----0--2---|

|-------------------------------------------------|
|-------------------------------------------------|
|----7-------8----------5----------2--------------|
|-9-------------5----------3----------0----0--2---|

|-------------------------------------------------|
|-------------------------------------------------|
|----7-------8----------5----------2--------------|
|-9-------------5----------3----------0----0--2---|

|--------------------------------------------|
|--------------------------------------------|
|----7-------8----------5----------2---------|
|-9-------------5----------3----------0------|

|---------------------------------------|
|---------------------------------------|
|----------------------------1-2-3-5--4-|
|-5-7---7--5-7---7--5-7---7-------------|

|---------------------------------------|
|---------------------------------------|
|----------------------------1-2-3-5--4-|
|-5-7---7--5-7---7--5-7---7-------------|

|---------------------------------------|
|---------------------------------------|
|----------------------------1-2-3-5--4-|
|-5-7---7--5-7---7--5-7---7-------------|

|---------------------------------------|
|---------------------------------------|
|----------------------------1-2-3-5--4-|
|-5-7---7--5-7---7--5-7---7-------------|

|-----------------|
|-----------------|
|-----------------|
|-3h5-5-5-5-5-5-5-|

|-----------------|
|-----------------|
|-----------------|
|-3h5-5-5-5-5-5-5-|

|-----------------|
|-----------------|
|-----------------|
|-3h5-5-5-5-5-5-5-|

|-----------------|
|-----------------|
|-----------------|
|-3h5-5-5-5-5-5-5-|

|-------------------|
|-------------------|
|-------------------|
|-5h7-7-7-7-7-7-7-7-|

|-------------------|
|-------------------|
|-------------------|
|-5h7-7-7-7-7-7-7-7-|

|-------------------|
|-------------------|
|-------------------|
|-5h7-7-7-7-7-7-7-7-|

|-------------------|
|-------------------|
|-------------------|
|-5h7-7-7-7-7-7-7-7-|

|-----------------------------|
|-----------------------------|
|------------------1-2-3-5--4-|
|-3h5-5-5-5-5-5-5-------------|

|-----------------------------|
|-----------------------------|
|------------------1-2-3-5--4-|
|-3h5-5-5-5-5-5-5-------------|

|-----------------------------|
|-----------------------------|
|------------------1-2-3-5--4-|
|-3h5-5-5-5-5-5-5-------------|

|-----------------------------|
|-----------------------------|
|------------------1-2-3-5--4-|
|-3h5-5-5-5-5-5-5-------------|

|-----------------------------|
|-----------------------------|
|------------------1-2-3-5--4-|
|-3h5-5-5-5-5-5-5-------------|

|-----------------------------|
|-----------------------------|
|------------------1-2-3-5--4-|
|-3h5-5-5-5-5-5-5-------------|

play slower than the first time.

|---------------------------------------|
|---------------------------------------|
|----------------------------1-2-3-5--4-|
|-5-7---7--5-7---7--5-7---7-------------|

|---------------------------------------||
|---------------------------------------||
|----------------------------1-2-3-5--4-||
|-5-7---7--5-7---7--5-7---7-------------||
Comments