Judas Priest - Before The Dawn Chords & Tabs

 

Before The Dawn Chords & Tabs

Judas Priest Chords & Tabs

Version: 1 Type: Tab 0 ratings
1 star 2 stars 3 stars 4 stars 5 stars
comments

Before The Dawn Tab

   
  Judas Priest
Before the dawn

Gtr I (E A D G B E) - 'Acoustic'
Gtr II (E A D G B E) - 'Lead guitar'
Gtr III (E A D G B E) - 'Keyboards'
Gtr IV (E A D G B E) - 'Strings'

 Intro
  Moderately Q=110
  Em                Am                D                   B7
 4/4
  Gtr I
|-----------------|-----------------|---------2---------|------------------|
|---0---0---0---0-|---1---1-0-1-----|---3---3---3----0--|---0---0-4-0---0--|
|-----0-------0---|-----2-------2-0-|-----2-------2-----|-----2-------2----|
|---------2-------|-----------------|-0-----------------|------------------|
|-----------------|-0---------------|-------------------|-2----------------|
|-0---------------|-----------------|-------------------|------------------|
|
| Gtr III
|-----------------|-----------------|-------------------|------------------|
|-0---------------|-1-----------1-0-|-------------------|------------------|
|-0---------------|-2---------------|-2-----------------|------------------|
|-----------------|-2---------------|-4-----------------|---------4-4-2-4--|
|-2---------------|-0---------------|-5-----0-------(0)-|-2----------------|
|-0---------------|-----------------|-------------------|-------2----------|


  Em                Am                B7                Em
|-----------------|-----------------|---------2-0-----|-0---------------|
|---0---0---0---0-|---1---1-0-1-----|---0---0-----4-0-|---0---0---0---0-|
|-----0-------0---|-----2-------2-0-|-----2-----------|-----0-------0---|
|---------2-------|-----------------|-----------------|---------2-------|
|-----------------|-0---------------|-2---------------|-----------------|
|-0---------------|-----------------|-----------------|-0---------------|
|
|-----------------|-----------------|-----------------|-----------------|
|-0---------------|-----------------|-----0-0-0-------|-----------------|
|-0---------------|-2---------------|-----------2-----|-----------------|
|-2---------------|-2---------------|-------------4---|-2---------------|
|-----------------|-0-----------0---|-2-----2-----2---|-2-----2-----2---|
|-0-----2-----2---|-------0---------|-----------------|-0---------------|


   Verse
    Em                Am                D                   B7
||------------------|-----------------|---------2---------|------------------|
||o---0---0---0---0-|---1---1-0-1-----|---3---3---3----0--|---0---0-4-0---0--|
||------0-------0---|-----2-------2-0-|-----2-------2-----|-----2-------2----|
||----------2-------|-----------------|-0-----------------|------------------|
||o-----------------|-0---------------|-------------------|-2----------------|
||--0---------------|-----------------|-------------------|------------------|
|
||------------------|-----------------|-------------------|------------------|
||o-0---------------|-1-----------1-0-|-------------------|------------------|
||--0---------------|-2---------------|-2-----------------|------------------|
||------------------|-2---------------|-4-----------------|---------4-4-2-4--|
||o-2---------------|-0---------------|-5-----0-------(0)-|-2----------------|
||--0---------------|-----------------|-------------------|-------2----------|


  Em                Am                B7                Em
|-----------------|-----------------|---------2-0-----|-0----------------||
|---0---0---0---0-|---1---1-0-1-----|---0---0-----4-0-|---0---0---0---0-o||
|-----0-------0---|-----2-------2-0-|-----2-----------|-----0-------0----||
|---------2-------|-----------------|-----------------|---------2--------||
|-----------------|-0---------------|-2---------------|-----------------o||
|-0---------------|-----------------|-----------------|-0----------------||
|
|-----------------|-----------------|-----------------|------------------||
|-0---------------|-----------------|-----0-0-0-------|-----------------o||
|-0---------------|-2---------------|-----------2-----|------------------||
|-2---------------|-2---------------|-------------4---|-2----------------||
|-----------------|-0-----------0---|-2-----2-----2---|-2-----2-----2---o||
|-0-----2-----2---|-------0---------|-----------------|-0----------------||


                    Chorus
  Em                 C
|-0---------------||----------8-----8-|
|---0---0---0---0-||------8-----8-----|
|-----0-------0---||----9---9-----9---|
|---------2-------||-10---------------|
|-----------------||------------------|
|-0---------------||------------------|
|
|-----------------||--0---------------|
|-----------------||--1---1---1---1---|
|-------------0---||--0---0---0---0---|
|-2---------------||------------------|
|-2-----2---------||--3---3---3---3---|
|-0-----------0---||------------------|


  G                         E7
|-------------10-------10-|-----7---10-7---10-|
|-------12-------12-------|---9---9------9----|
|----12----12-------12----|-------------------|
|-------------------------|-------------------|
|-10----------------------|-7-----------------|
|-------------------------|-------------------|
|
|-------------------------|-------------------|
|--3----------------------|-3-----------------|
|--4----------------------|-0-----------------|
|--0-----0-----0-----0----|-------------------|
|-------------------------|-2---2----2---2----|
|--3-----3-----3-----3----|-0---0----0---0----|


  Am                        C
|-------------12-------12-|----------8-----8-|
|-------13-------13-------|------8-----8-----|
|----14----14-------14----|----9---9-----9---|
|-------------------------|-10---------------|
|-12----------------------|------------------|
|-------------------------|------------------|
|
|--0----------------------|--0---------------|
|--1----------------------|--1---1---1---1---|
|-------------------------|--0---0---0---0---|
|--2-----2-----2-----2----|------------------|
|--0-----0-----0-----0----|--3---3---3---3---|
|-------------------------|------------------|


  G                 D7
|-----------------|---------2-------|
|-3---0---3-0-----|-----3-1---3-1---|
|---0---0-----0---|---2-----------2-|
|---------------0-|-0---------------|
|-----------------|-----------------|
|-3---------------|-----------------|
|
|-----------------|-----------------|
|-3---------------|-1---------------|
|-4---------------|-2---------------|
|-0---0---0---0---|-4---4---4---4---|
|-----------------|-5---5---5---5---|
|-3---3---3---3---|-----------------|


  D7               C                 G                 Emaj7
|---------2-0----|-----------------|-----------------|-----------------|
|---3---1--------|---------1-----1-|-----0---3-0---3-|-----0---3-0---3-|
|-----2----------|-----0-----0-----|---0---0-----0---|---1---1-----1---|
|-0--------------|---2---2-----2---|-----------------|-----------------|
|----------------|-3---------------|-----------------|-----------------|
|----------------|-----------------|-3---------------|-0---------------|
|
|----------------|-----------------|-----------------|-----------------|
|-1--------------|-5---------------|-3---------------|-3---------------|
|-2--------------|-5---5---5---5---|-4---------------|-0---------------|
|-4---4---4---4--|-5---5---5---5---|-0---0---0---0---|-----------------|
|-5---5---5---5--|-3---3---3---3---|-----------------|-2---2---2---2---|
|----------------|-----------------|-3---3---3---3---|-0---0---0---0---|


  Am                Am                C                 B7
|---------0-----0-|---------0-----0-|-----0---0-----0-|---------2-------|
|-----1-----1-----|-----1-----1-----|-----------1-----|---0-3-0---3-0---|
|---2---2-----2---|---2---2-----2---|---0---0-----0---|-----------------|
|-----------------|-----------------|-----------------|---------------4-|
|-0---------------|-0---------------|-3---------------|-2---------------|
|-----------------|-----------------|-----------------|-----------------|
|
|-0---------------|-0---------------|-0---------------|-2---------------|
|-1---------------|-1---------------|-1---1---1---1---|-4---------------|
|-----------------|-----------------|-0---0---0---0---|-----------------|
|-2---2---2---2---|-2---2---2---2---|-----------------|-4---4---4---4---|
|-0---0---0---0---|-0---0---0---0---|-3---3---3---3---|-2---2---2---2---|
|-----------------|-----------------|-----------------|-----------------|


  B7                Em                Em
|---------2-------|---------0-------|---------0-------||
|---0-3-0---3-0---|-----0-----0---0-|-----0-----0---0-||
|-----------------|-------0-----0---|---0---0-----0---||
|---------------4-|---2-------------|-----------------||
|-2---------------|-----------------|-----------------||
|-----------------|-0---------------|-0---------------||
|
|-2---------------|-0---------------|-----------------||
|-4---------------|-1---------------|-1-----------1-0-||
|-----------------|-0---0---0---0---|-----------------||
|-4---4---4---4---|-----------------|-----------------||
|-2---2---2---2---|-3---3---3---3---|-----------------||
|-----------------|-----------------|-----------------||


 Guitar solo
  C                                   D
  Gtr II
|-----------------------------------|--------------------------------------------|
|-----------------------------------|-10b12r(10)b12r(10)b12r(10)b12==(10)r-----8-|
|-2b4r(2)b4r(2)b4r(2)b4==(2)r-----0-|--------------------------------------------|
|-----------------------------------|--------------------------------------------|
|-----------------------------------|--------------------------------------------|
|-----------------------------------|--------------------------------------------|
|
| Gtr I
|-----------------------------------|----------------------------------2---------|
|-------------------------1-------1-|-----------------3--------------------3---3-|
|------------0----------------0-----|---------2---------------2--------------2---|
|------2-----------2------------2---|--------------------------------------------|
|-3---------------------------------|--2-----------------------------------------|
|-----------------------------------|--------------------------------------------|
|
| Gtr III
|-------------------------5---------|----------------------------------3---------|
|-----------------------------------|--------------------------------------------|
|-2---------------------------------|--0-----------------------------------------|
|-----------------------------------|--------------------------------------------|
|-----------------------------------|--------------------------------------------|
|-----------------------------------|--------------------------------------------|


  Am                         Am
   ~~                         ~~~
|--------------------------|-----------------------|
|-10-------(10)-[8]---10-8-|-----------------------|
|--------------------------|--9------------(9)\----|
|--------------------------|-----------------------|
|--------------------------|-----------------------|
|--------------------------|-----------------------|
|
|------------0---------0---|-----------0--------0--|
|------1---------1---------|-------1-----1---------|
|----2---2----------2------|-----2---2------2------|
|--------------------------|-----------------------|
|--0-----------------------|--0--------------------|
|--------------------------|-----------------------|
|
|--------------------------|-----------------------|
|--------------------------|-----------------------|
|--------------------------|-----------------------|
|--4-----------------------|-(4)-------------------|
|--------------------------|-----------------------|
|--------------------------|-----------------------|

[ Tab from: http://www.guitartabs.cc/tabs/j/judas_priest/before_the_dawn_tab.html ]
  C                                   D
  Gtr II
|-----------------------------------|--------------------------------------------|
|-----------------------------------|-10b12r(10)b12r(10)b12r(10)b12==(10)r-----8-|
|-2b4r(2)b4r(2)b4r(2)b4==(2)r-----0-|--------------------------------------------|
|-----------------------------------|--------------------------------------------|
|-----------------------------------|--------------------------------------------|
|-----------------------------------|--------------------------------------------|
|
| Gtr I
|-----------------------------------|----------------------------------2---------|
|-------------------------1-------1-|-----------------3--------------------3---3-|
|------------0----------------0-----|---------2---------------2--------------2---|
|------2-----------2------------2---|--------------------------------------------|
|-3---------------------------------|--2-----------------------------------------|
|-----------------------------------|--------------------------------------------|
|
|                                     Gtr IV
|-------------------------5---------|--2-----------------------------------------|
|-----------------------------------|--3-----------------------------------------|
|-2---------------------------------|--4-----------------------------------------|
|-----------------------------------|--------------------------------------------|
|-----------------------------------|--------------------------------------------|
|-----------------------------------|--------------------------------------------|


  Am                       Am
   ~~
|------------------------|-12-----------12-(12)--|
|-10-------(10)-8---10-8-|------------------12---|
|------------------------|-----------------------|
|------------------------|-----------------------|
|------------------------|-----------------------|
|------------------------|-----------------------|
|
|------------0-------0---|----------0--------0---|
|------1--------1--------|------1-----1----------|
|----2---2--------2------|----2---2------2-------|
|------------------------|-----------------------|
|--0---------------------|--0--------------------|
|------------------------|-----------------------|
|
|--0---------------------|--0--------------------|
|--1---------------------|--1--------------------|
|--2---------------------|--2--------------------|
|------------------------|-----------------------|
|------------------------|-----------------------|
|------------------------|-----------------------|


  C                       D
   ~~~~~
|-----------------------|---------------------------|
|-15b17-----------15-12-|---------------------------|
|-----------------------|-14b15r==12-14-------12-14-|
|-----------------------|---------------------------|
|-----------------------|---------------------------|
|-----------------------|---------------------------|
|
|-----------------------|-----------------2---------|
|-------------1-------1-|-------------3-----3-----3-|
|---------0-----0-------|-------2-------2------2----|
|-------2---2------2----|---------------------------|
|--3--------------------|--2------------------------|
|-----------------------|---------------------------|
|
| Gtr IV
|--3--------------------|--5------------------------|
|--5--------------------|--7------------------------|
|--5--------------------|--7------------------------|
|-----------------------|--9------------------------|
|-----------------------|---------------------------|
|-----------------------|---------------------------|


  Am                        Am
                             ~~
|-------------------------|---------------------------------------10-|
|-------------------------|--------------------------10---12-13------|
|-16----------------------|----------------9---11-12-----------------|
|----12-10-9-9/-10-10/-12-|------9-10---12---------------------------|
|-------------------------|-12---------------------------------------|
|-------------------------|------------------------------------------|
|
|------------0----------0-|------------------0------------------0----|
|--------1-------1--------|------1-----------------1-----------------|
|-----2----2--------2-----|----2------2-----------------2------------|
|-------------------------|------------------------------------------|
|--0----------------------|--0---------------------------------------|
|-------------------------|------------------------------------------|
|
|-------------------------|------------------------------------------|
|--5----------------------|--5---------------------------------------|
|--5----------------------|--5---------------------------------------|
|--7----------------------|--7---------------------------------------|
|-------------------------|------------------------------------------|
|-------------------------|------------------------------------------|


  C                         B7
   ~~                                ~~~~~~
|-12-------(12)-14---15---|-17b19---17b19========(17)r-15-|
|-------------------------|-------------------------------|
|-------------------------|-------------------------------|
|-------------------------|-------------------------------|
|-------------------------|-------------------------------|
|-------------------------|-------------------------------|
|
|------0-----0----------0-|------------------2------------|
|----------------1--------|-------0--3-----0---3---0------|
|----0---0---------0------|-------------------------------|
|-------------------------|-----------------------------4-|
|--3----------------------|--2----------------------------|
|-------------------------|-------------------------------|
|
|--3----------------------|--5----------------------------|
|--5----------------------|--7----------------------------|
|--5----------------------|--8----------------------------|
|-------------------------|--9----------------------------|
|-------------------------|-------------------------------|
|-------------------------|-------------------------------|


                            Chorus
  Em                         C
                   ~          ~~
|-------------------------||------------------|
|-------------------------||------------------|
|-------------------------||------------------|
|-14-12-10-9--------------||------------------|
|------------12-10-7------||------------------|
|----------------------10-||--8---------------|
|
|-------------0------0----||----------8-----8-|
|--------0-------0--------||------8-----8-----|
|-----0----0-------0------||----9---9-----9---|
|-------------------------||-10---------------|
|-------------------------||------------------|
|--0----------------------||------------------|
|
|-------------------------||------------------|
|--8----------------------||--8---------------|
|-------------------------||--9---------------|
|--9----------------------||-10---------------|
|--7----------------------||------------------|
|-------------------------||------------------|


  G                         E7
  Gtr I
|-------------10-------10-|-----7---10-7---10-|
|-------12-------12-------|---9---9------9----|
|----12----12-------12----|-------------------|
|-------------------------|-------------------|
|-10----------------------|-7-----------------|
|-------------------------|-------------------|
|
| Gtr IV
|-------------------------|-------------------|
|--0----------------------|-0-----------------|
|--7----------------------|-7-----------------|
|--5----------------------|-6-----------------|
|-------------------------|-7-----------------|
|-------------------------|-------------------|


  Am                        C
|-------------12-------12-|----------8-----8-|
|-------13-------13-------|------8-----8-----|
|----14----14-------14----|----9---9-----9---|
|-------------------------|-10---------------|
|-12----------------------|------------------|
|-------------------------|------------------|
|
|--0----------------------|--3---------------|
|-------------------------|--5---------------|
|--5----------------------|--5---------------|
|--7----------------------|------------------|
|-------------------------|------------------|
|-------------------------|------------------|


  G                 D7                 D7               C
|-----------------|----------2-------|----------2-0---|-----------------|
|-3---0---3-0-----|------3-1---3-1---|----3---1-------|---------1-----1-|
|---0---0-----0---|----2-----------2-|------2---------|-----0-----0-----|
|---------------0-|--0---------------|--0-------------|---2---2-----2---|
|-----------------|------------------|----------------|-3---------------|
|-3---------------|------------------|----------------|-----------------|
|
|-----------------|--5---------------|--5-------------|-3---------------|
|-3---------------|--7---------------|--7-------------|-5---------------|
|-4---------------|--7---------------|--7-------------|-5---------------|
|-5---------------|-10---------------|-10-------------|-----------------|
|-----------------|------------------|----------------|-----------------|
|-----------------|------------------|----------------|-----------------|


  G                 Emaj7             Am                Am
|-----------------|-----------------|---------0-----0-|---------0-----0-|
|-----0---3-0---3-|-----0---3-0---3-|-----1-----1-----|-----1-----1-----|
|---0---0-----0---|---1---1-----1---|---2---2-----2---|---2---2-----2---|
|-----------------|-----------------|-----------------|-----------------|
|-----------------|-----------------|-0---------------|-0---------------|
|-3---------------|-0---------------|-----------------|-----------------|
|
|-----------------|-----------------|-0---------------|-----------------|
|-3---------------|-0---------------|-----------------|-5---------------|
|-4---------------|-7---------------|-5---------------|-5---------------|
|-5---------------|-6---------------|-7---------------|-7---------------|
|-----------------|-7---------------|-----------------|-----------------|
|-----------------|-----------------|-----------------|-----------------|


                                                        Final verse
  C                 B7                B7                 Em
|-----0---0-----0-|---------2-------|---------2-------||-----------------|
|-----------1-----|---0-3-0---3-0---|---0-3-0---3-0---||-----0-----0---0-|
|---0---0-----0---|-----------------|-----------------||---0---0-----0---|
|-----------------|---------------4-|---------------4-||---------2-------|
|-3---------------|-2---------------|-2---------------||-----------------|
|-----------------|-----------------|-----------------||-0---------------|
|
| Gtr IV                                                 Gtr III
|-3---------------|-5---------------|-5---------------||-----------------|
|-5---------------|-7---------------|-7---------------||-0---------------|
|-5---------------|-8---------------|-8---------------||-0---------------|
|-----------------|-9---------------|-9---------------||-----------------|
|-----------------|-----------------|-----------------||-2---------------|
|-----------------|-----------------|-----------------||-0---------------|


  Am                D                   B7                Em
|-----------------|---------2---------|-----------------|-----------------|
|---1---1-0-1-----|---3---3---3----3--|---0---0-4-0---0-|---0---0---0---0-|
|-----2-------2-0-|-----2-------2-----|-----2-------2---|-----0-------0---|
|-----------------|-0-----------------|-----------------|---------2-------|
|-0---------------|-------------------|-2---------------|-----------------|
|-----------------|-------------------|-----------------|-0---------------|
|
|-----------------|-------------------|-----------------|-----------------|
|-1-----------1-0-|-------------------|-----------------|-0---------------|
|-2---------------|-2-----------------|-----------------|-0---------------|
|-2---------------|-4-----------------|-----------------|-----------------|
|-0---------------|-5-----0-------(0)-|-2-------4-4-2-4-|-2-----2-----2---|
|-----------------|-------------------|-------2---------|-0---------------|


  Am                B7                Em
|-----------------|-----------------|-^0----------|-(0)-----------*|
|---1---1-0-1-----|---0---0---0-----|-^0----------|-(0)-----------*|
|-----2-------2-0-|-----2---2---0---|-^0----------|-(0)-----------*|
|-----------------|---------------4-|-^2----------|-(2)-----------*|
|-0---------------|-2---------------|-^2----------|-(2)-----------*|
|-----------------|-----------------|-^0----------|-(0)-----------*|
|
|-----------------|-----------------|-------------|---------------*|
|-----------------|-----0-0-0-------|-------------|---------------*|
|-2---------------|-----------2-----|-------------|---------------*|
|-2---------------|-------------4---|--2----------|---------------*|
|-0-----------0---|-2-----2-----2---|--2---2---2--|--2-----(2)----*|
|-------0---------|-----------------|--0----------|--0-----(0)----*|



Comments