Judas Priest - Angle Chords & Tabs

 

Angle Chords & Tabs

Judas Priest Chords & Tabs

Version: 1 Type: Tab 0 ratings
1 star 2 stars 3 stars 4 stars 5 stars
comments

Angle Tab

Gtr.1 Intro/Verse
|------------------------------------|
|-----3-3--2-3-----------------------|
|-----4-4-----------0-------2--------|
|---4-4-4-------------0---2---2------|
|-2---------------2-----0------------|
|---------------3--------------------|


|------------------------------------|
|-----3-3--5-3-----------------------|
|-----4-4-----------0-------2--------|
|---4-4-4-------------0---2---2*-----|
|-2---------------2-----0------------|
|---------------3--------------------|
[ Tab from: http://www.guitartabs.cc/tabs/j/judas_priest/angle_tab.html ]
Gtr.2 (joins gtr.1 at * the first time)
|-9-10-7--9-10-12-10-9-7-5-------7-7-|
|--------------------------5-5/7-----|
|------------------------------------|
|------------------------------------|
|------------------------------------|
|------------------------------------|

|------------------------------------|
|-5-7-8-7-5--------------------------|
|-----------7-6—4-4------------------|
|----------------7-------------------|
|------------------------------------|
|------------------------------------|

Pre-Chorus
|-----3-----------2----------------------3--------2-----|
|-----3-----------3----------------------3--------3-----|
|-----4-----------4----------------------4--------4-----|
|-----5-----------4----------------------5--------4-----|
|-----5-----------2----------------------5--------2-----|
|-----3----------------------------------3--------------|


|-----------------3-----------------------------2----
Comments