Judas Priest - Angel Chords & Tabs

 

Angel Chords & Tabs

Judas Priest Chords & Tabs

Version: 1 Type: Tab 0 ratings
1 star 2 stars 3 stars 4 stars 5 stars
comments

Angel Tab

Acoustic

Guitar 1 Intro Riff 1
---------------------------------------------|
---------------------------------------------|
-----7-7--6-7-----------------------7-7--9-7-|
-----9--------------5-------7-------9--------|
---9--------------5---5---7---7---9----------|
-7--------------3-------5-------7------------|repeat until chorus

Guitar 2 Intro riff 2
-7-10-7----9-10-12-10-9-5---77-----------------------|
--------------------------7------7-5-8-7-5-----------|
-------------------------------------------7-6-7p6-4-|
-----------------------------------------------------|
-----------------------------------------------------|
-----------------------------------------------------|

Chorus
-------9-9-9-------9-9-9---------------------|
-------9-9-9-------9-9-9---------------------|
-------9-9-9-------9-9-9---------------------|
-5-5-5-9-9-9-5-5-5-9-9-9-5-5-5-2-2-2-4-4-4-4-|
-5-5-5-9-9-9-5-5-5-9-9-9-5-5-5-2-2-2-4-4-4-4-|
-3-3-3-7-7-7-3-3-3-7-7-7-3-3-3-0-0-0-2-2-2-2-|
[ Tab from: http://www.guitartabs.cc/tabs/j/judas_priest/angel_tab.html ]
Electric Riff
-7-10-7----9-10-12-10-9-7-5--77-9-10-12-10-17-17-15-14--15-14--------|
----------------------------7---------------------------------12-15--|
---------------------------------------------------------------------|
---------------------------------------------------------------------|
---------------------------------------------------------------------|
---------------------------------------------------------------------|

----------------------------------------------------|
-17bu19-17-14-15-12---------------------------------|
----------------------------9-11-12-11-12-11-9------|
--------------------9-11-12--------------------9-12-|
----------------------------------------------------|
----------------------------------------------------|

Acoustic Struming

-------------------------------------------------------------------|
-------------------------------------------------------------------|
-----------------------4-444-4444----------------------------------|
-2-222-2222-4-444-4444-4-444-4444-5-555-5555-2-222-2222-4-444-4444-|
-2-222-2222-4-444-4444-2-222-2222-5-555-5555-2-222-2222-4-444-4444-|
-0-000-0000-2-222-2222------------3-333-3333-0-000-0000-2-222-2222-|

-----------------------|
-----------------------|
-4444-2222-9-----------|
-4444-2222-9-----------|
-2222-0000-7-slidedown-|
-----------------------|

Electric Strumming

--------------------------|
--------------------------|
--------------------------|
-9----5--7--9----555--777-|
-9----5--7--9----555--777-|
-7----3--5--7----333--555-| repeat until end
                 xx   xx
Comments