Judas Priest - Angel Chords & Tabs

 

Angel Chords & Tabs

Judas Priest Chords & Tabs

Version: 1 Type: Bass Tab

Angel Bass Tab

Album: Angel of Retribution
Standard Tuning
(EADG)
\=slide up
/=slide down
~=let note ring out
This is an awesome one of the slower songs on Judas Priest's new album, 
"Angel of Retribution" it just came out. yall should check it out. 
Its my favorite album of theirs. turn the bass way up for this song. 
ya, but since there were no tabs for this originaly, here ya go.

When bass comes in...(1:49)
verse
G-----------------------------------------------------------------------|
D-----------------------------------------------------------------------|
A--2~~-----0---0--2~~-------0--4h5--2~~---------0---2~~--------5-0------|
E------2-3---2----------2-3----------------2-3----2--------2-3-----3-2--| 
go right into the chorus then

Chorus 

G------------------------------------------------------------------------------------|
D------------------------------------------------------------------------------------|
A---------------2--2-2----------------2--2-2\----------------------------------------|
E--3~~-3-3--3-----------2-3~~-3-3--3----------3--3-3--3----0--0-0--0---2~--2-2--2--2-|

"Angel shine your light on me..."
[ Tab from: http://www.guitartabs.cc/tabs/j/judas_priest/angel_btab.html ]
Verse/Guitar Solo
G-----------------------------------------------------------------------------|
D-----------------------------------------------------------------------------|
A--4h5--2-----0--2~~---------5--0--7-----2~~---------0---2~~-----5-0----------|
E---------2-3------------2-3----------3-2--------2-3---2-----2-3------3-2--0~-|

When vocals come back in...(2:58)
G----------------------------------------------------------------------|
D----------------------------------------------------------------------|
A------------------------------------2--2-2--2-2--2--------------------|
E--0--0-0--0-0--0---2--2-2--2-2--2--------------------3--3-3--3-3--3---|

G-------------------------------------------------------|
D-------------------------------------------------------|
A-----------------------------------2222--0000----------|
E--0--0-0--0-0--0---2--2-2--2-2--2---------------3~~----|

"Angel take me far away!!!"

Final Chorus....(when it gets heavy)
(x1)                                       (x2)              (x1)
G-------------------------------------------|-----------------|---------------------|
D-------------------------------------------|-----------------|---------------------|
A--2~~~-----0~~~--2~~~--------00xx00--2~~~--|------0000--2~~~-|---------00xx00--2~~-|
E------3~~~------------33xx33---------------|-3333------------|--33xx33-------------|

(x1)             (x1)
G----------------|---------------------|---------------|
D----------------|---------------------|---------------|
A-------0-0--2~~-|---------00xx00--2~~-|-------0-0-----|
E--3-3-----------|--33xx33-------------|--3-3-------3~~|

There you go....great song...enjoy....rate high!