Judas Priest - All Guns Blazing Chords & Tabs

 

All Guns Blazing Chords & Tabs

Judas Priest Chords & Tabs

Version: 1 Type: Tab 0 ratings
1 star 2 stars 3 stars 4 stars 5 stars
comments

All Guns Blazing Tab

   
             All Guns Blazing

        from the "Painkiller" album 


 http://www.cs.mcgill.ca/~ktulu/motorhead)


Legend:

 .  : palm muting
 ~  : vibrato
 "  : tremolo picking
 /  : slide up
 \  : slide down
 h  : hammer-on

Standard tuning

Intro  
Try a slight
vibrato on this C chord
e|-----|------------------------------------------------------------|
B|-----|------------------------------------------------------------|
G|--5~-|---------------------------------------------------5--4--2--|
D|--5~-|---------------------------------------------------5--4--2--|
A|--3--|--h4-4-4-4-4-4-4-5\4-4-4-4-4-4-4--h4-4-4-5\4-4-4-4-3--2--0--|
E|-----|-0h2-2-2-2-2-2-2-3\2-2-2-2-2-2-2-0h2-2-2-3\2-2-2-2----------|
             . . . . . .     . . . . . .     . .     . .	.

Verse
e|------------------------------------------------------------|
B|------------------------------------------------------------|
G|---------------------------------------------------5--4--2--|
D|---------------------------------------------------5--4--2--|
A|--h4-4-4-4-4-4-4-5\4-4-4-4-4-4-4--h4-4-4-5\4-4-4-4-3--2--0--|
E|-0h2-2-2-2-2-2-2-3\2-2-2-2-2-2-2-0h2-2-2-3\2-2-2-2----------|
       . . . . . .     . . . . . .     . .     . .	.

                                               1st time 2nd time
e|---------------------------------------------|-------|------|
B|---------------------------------------------|-------|------|
G|---------------------------------------------|---5---|--9---|
D|---------------------------------2-----------|---5---|--9---|
A|--h4-4-4-4-4-4-4-5\4-4-4-4-4-4-4-2---2-2-2-2-|---3---|--7---|
E|-0h2-2-2-2-2-2-2-3\2-2-2-2-2-2-2-0---0-0-0-0-|-------|--0---|
       . . . . . .     . . . . . .     . . . .   

Chorus
e|---------------------------------|----------------------------------|
B|---------------------------------|----------------------------------|
G|---------------------------------|----------------------------------|
D|-5/7----8\7-----5-7-8-7--5-7-8-5-|--5/7----8\7-----5-7-8-7--5-7-8-5-|
A|-5/7----8\7-----5-7-8-7--5-7-8-5-|--5/7----8\7-----5-7-8-7--5-7-8-5-|
E|-3/5----6\5-----3-5-6-5----------|--3/5----6\5-----3-5-6-5----------|

Fill during the last bit of the chorus
"Scoop" each note using tremolo bar
(i.e. depress bar before picking each note then release)
e|---------------------------|play this only after|
B|-\------\------\-----\-----|the first chorus----|
G|--\12/---\14/---\15/--\14/-|-11~----------------|
       								 
[ Tab from: http://www.guitartabs.cc/tabs/j/judas_priest/all_guns_blazing_tab.html ]
Rhythm behind Glenn's 1st lead break                 
                       (x4)                      (x3)
e|-------------------------|-------------------------|-------------------------|
B|-------------------------|-------------------------|-------------------------|
G|-------------------------|-------------------------|-------------------------|
D|-4-4-4-4-4-4-4-4-4-4-5-5-|-------------------------|-------------4-----------|
A|-2-2-2-2-2-2-2-2-2-2-3-3-|-4-4-4-4-4-4-4-4-4-4-5-5-|-------4-----------6~----|
E|-------------------------|-2-2-2-2-2-2-2-2-2-2-3-3-|-2-----------------------|
     . .   . .   . . .         . .   . .   . . .      
                                                                                     
Not too sure about the second ending                                                 (all this twice)
e|-------------------------------------------------|-------------------------------------------------|
B|-------------------------------------------------|-------------------------------------------------|
G|-------------------------------------------------|-------------------------------------------------|
D|-6-6-6-6-6-6-6-6-6-6-6-6-6-6-6-6-----------------|-6-6-6-6-6-6-6-6-6-6-6-6-6-6-6-6-----------------|
A|-4-4-4-4-4-4-4-4-4-4-4-4-4-4-4-4-4-5-4---4-5-7-4-|-4-4-4-4-4-4-4-4-4-4-4-4-4-4-4-4-----------------|
E|---------------------------------------7---------|---------------------------------2-3-2-0-2-3-2-0-|
   . . . . . . . . . . . . . . . . . . . . . . . .   . . . . . . . . . . . . . . . . . . . . . . . .

                       (x3)                       
e|-------------------------|-------------------------|
B|-------------------------|-------------------------|
G|-------------------------|-------------------------|
D|-------------------------|-------------------------|
A|-7-7-7-7-7-7-7-7-7-7-8-8-|---------4"--------------|
E|-5-5-5-5-5-5-5-5-5-5-6-6-|-5"--6"------6"--5"--3"--|
     . .   . .   . . .      

e|-----------------------------------------------------------------------|
B|-----------------------------------------------------------------------|
G|-----------------------------------------------------------------------|
D|-2---3---2---3---2-3-2-3-2----------------------------9----------------|
A|-2---3---2---3---2-3-2-3-2--------2-------2---5---8---7----8-7-5-7-5-3-|
E|-0---1---0---1---0-1-0-1-0-1--4-------4--------------------------------|

Bridge                (x4)
e|------------------------|Exit this section by picking the open G string (no pun intended)
B|------------------------|and diving with your tremolo bar
G|------------------------|--0\---|
D|-5/7----8\7----5-7-8-7--|----\--|
A|-5/7----8\7----5-7-8-7--|-----\-|
E|-3/5----6\5----3-5-6-5--|-------|

Verse 

Chorus

Rhythm behind Glenn's 2nd lead break
                       (x8)
e|-------------------------|
B|-------------------------|
G|-------------------------|
D|-------------------------|
A|-4-4-4-4-4-4-4-4-4-4-5-5-|
E|-2-2-2-2-2-2-2-2-2-2-3-3-|
     . .   . .   . . .      

Coda                  (x4)
e|------------------------|------|
B|------------------------|------|
G|------------------------|------|
D|-2h4----5\4----2-4-5-4--|-4/-\-|
A|-2h4----5\4----2-4-5-4--|-4/-\-|
E|-0h2----3\2----0-2-3-2--|-2/-\-|
Comments