Juanes - La Paga Chords & Tabs

 

La Paga Chords & Tabs

Juanes Chords & Tabs

Version: 3 Type: Tab 0 ratings
1 star 2 stars 3 stars 4 stars 5 stars
comments

La Paga Tab

   
Esta canción va dedicada a todas las mujeres perronchas
 del mundo y a la sociedad hipócrita de Ciudad Bolívar.

Este es el punteo q va en el intro.va por las notas: Am 4 tiempos,
Dm 2 tiempos, y Em 2 tiempos.

e-------------------------------------------/
b------------------------------10-10--------/
g---9----7--9--10--12--10-7--9-------7--9---/
d-----------------------------------------7-/
a-------------------------------------------/
E-------------------------------------------/

Esto va creo, despues de cada dos estrofas:

e------------------------------------/
b---------5--------------------------/
g-5-5-7-9---5-5-7-9-7-5--------------/
d-----------------------9-7--7-5-----/
a--------------------------------7-5-/
E------------------------------------/
 
e------------------------5-7--------------------/
b---------5----------5-6-------8-6-5---6-5------/
g-5-5-7-9----5-5-7-9-----------------7----7-5---/
d---------------------------------------------7-/
a-----------------------------------------------/
E-----------------------------------------------/

 Am                          Dm         
Ayer me dijiste que tu me querías
E               Am
Pero todo fué mentira
Am                           Dm
Ayer me dijiste que tu me querías 
                 Am
Pero todo fué mentira.

Am                     Dm
Ayer tu heriste la vida mia
E                    Am
Y que grande fue la herida.
Am                    Dm
Ayer tu heriste la vida mia
E                     Am
Y que grande fue la herida
[ Tab from: http://www.guitartabs.cc/tabs/j/juanes/la_paga_tab_ver_3.html ]
Am                             Dm   
Si tu no me quieres dime lo que sientes
E                 Am
Pero dimelo de frente
Am                            Dm
Si tu no me quieres dime lo que sientes
E                 Am
Pero dimelo de frente 
Am                            Dm
Que a mi lo que me da rabia es eso
E                 Am
De no saber lo que sientes 
Am                            Dm
Que a mi lo que me da rabia es eso
E                 Am
De no saber lo que sientes.

CORO:

Am                    Dm
Y si tu me pagas con eso
E                    Am  
Yo ya no te doy mas de esto amor
Am                  Dm
Si tu me pagas con eso
E                   Am
Yo ya no te doy mas de esto amor

Am                        Dm
Ayer me dijste que tu volverías
E                Am
Pero todo fue mentira
Am                         Dm
Ayer me dijiste que tu volverías
E                Am
Pero todo fue mentira.

Am                       Dm
Ayer tu dijiste mil tonterías 
E                  Am
Que acabaron con mi vida
Am                       Dm
Ayer tú dijiste mil tonterías
E                  Am
Que acabaron con mi vida

Y si tu me pagas con..............

LO DEMAS VA IGUAL SIEMPRE:

Te di lo que tuve solo por un beso
Y no conseguí ni eso
Te di lo que tuve solo por un beso
Y no conseguí ni eso

Mentira mentira mentira mentira
Todo lo tuyo es mentira
Mentira mentira mentira mentira
Todo lo tuyo es mentira

Y si tu me pagas con eso
Yo ya no te doy mas de esto amor
Si tú me pagas con eso
Yo ya no te doy mas de esto amorrr...!

¡HAY UNA PARTE DONDE LA CANCION SUBE UN TONO! CREO
EN LA PARTE FIANL EN EL CORO CUANDO DICE: 'YO YA NO T DOY 
MAS DE ESTO'  LOS ACORDES CAMBIAM A SER: Bm 4 tiempos
Em 2 tiempos y f#
Comments