Juanes - Camisa Negra Chords & Tabs

 

Camisa Negra Chords & Tabs

Juanes Chords & Tabs

Version: 1 Type: Tab 4 ratings
1 star 2 stars 3 stars 4 stars 5 stars
comments

Camisa Negra Tab

Juanes Camisa Negra
INTRO

GuiTaR 1

e------2------
B------3------
G------4------
D--x---4------
A--x---2------
E--x---2------

GUITAR 2

e----------l----------l----------l
B----------l----------l----------l
G----------l----------l----------l
D--4/7-7---l--4/7-7---l--4/7-7---l
A----------l----------l----------l
E----------l----------l----------l

e----------l----------l----------l
B----------l----------l----------l
G----------l----------l----------l
D--6/9-9---l--6/9-9---l--6/9-9---l
A----------l----------l----------l
E----------l----------l----------l

E------------l------------l-------------l--------l
B------------l------------l-------------l--------l
G------------l------------l-------------l--------l
D--8/11-11---l--8/11-11---l--8/-11-11---l--5-5---l
A------------l------------l-------------l--------l
E------------l------------l-------------l--------l

E------------------l
B------------------l
G--6-7-6-4-3-------l
D------------6-4---l
A------------------l
E------------------l

E----------------l------------l------------l----------l
B----------------l------------l------------l----------l
G----------6-----l------6-----l------6-----l----------l
D--7-7-4-7---7---l--4-7---7---l--4-7---7---l--4-7-4---l
A----------------l------------l------------l----------l
E----------------l------------l------------l----------l
Middle
E------------------l------------l------------l----------l
B------------------l------------l------------l----------l
G-------------8----l------8-----l------8-----l----------l
D--6-9-9--6-9---9--l--6-9---9---l--6-9---9---l--6-9-6---l
A------------------l------------l------------l----------l
E------------------l------------l------------l----------l
[ Tab from: http://www.guitartabs.cc/tabs/j/juanes/camisa_negra_tab.html ]
E-------------------l------------l------------l----------l
B-------------------l------------l------------l----------l
G-------------6-----l------6-----l------6-----l----------l
D--4-7-7--4-7---7---l--4-7---7---l--4-7---7---l--4-7-4---l
A-------------------l------------l------------l----------l
E-------------------l------------l------------l----------l

E-----------------------l------------------l------------------l
B-----------------------l--6-2---2---------l--6-2---2---------l
G---4-4-6-7-6-4-3-------l------4---4---4---l------4---4---4---l
D-----------------6-4---l------------4-----l------------4-----l
A-----------------------l------------------l------------------l
E-----------------------l------------------l------------------l


E------------------l----------------l
A------5-7-9-7-5---l------5---5-----l
D----5-------------l----5---5-------l
G--5---------------l--5---------5---l  X3
B------------------l----------------l
E------------------l----------------l
End

E---------------------l----------l
A--------5--7-9-7-5---l----------l
D------5--------------l----5-5---l
G--5-5----------------l--5-------l
B---------------------l----------l
E---------------------l----------l

Tengo la camisa negra
hoy mi amor esta de luto

Hoy tengo en el alma una pena
y es por culpa de tu embrujo

Hoy s é que t ú ya no me quieres
y eso es lo que más me hiere
que tengo la camisa negra
y una pena que me duele
mal parece que solo me qued é
y fue pura todita tu mentira
que maldita mala suerte la mía
que aquel día te encontré
por beber del veneno malevo de tu amor
yo qued é moribundo y lleno de dolor
respir é de ese humo amargo de tu adiós
y desde que t ú te fuiste yo solo tengo…
tengo la camisa negra
porque negra tengo el alma
yo por ti perdí la calma
y casi pierdo hasta mi cama

cama cama caman baby
te digo con disimulo
que tengo la camisa negra
y debajo tengo el difunto
tengo la camisa negra
ya tu amor no me interesa
lo que ayer me supo a gloria
hoy me sabe a pura
miércoles por la tarde y t ú que no llegas
ni siquiera muestras señas
y yo con la camisa negra
y tus maletas en la puerta
Comments