Juana - Reyna Ng Quezon City Chords & Tabs

 

Reyna Ng Quezon City Chords & Tabs

Juana Chords & Tabs

Version: 1 Type: Tab 0 ratings
1 star 2 stars 3 stars 4 stars 5 stars
comments

Reyna Ng Quezon City Tab

   
Reyna ng Quezon City
By: Juana

Tabbed by: Rubs_Tugz

Verse 1:
                   D
Kailangan ko ng pera
        G                  A                    D
Pamasahe't pambili ng pabango na gagamitin sa gabing ito
                        G
At kailangan ko ng salamin
       A                           D
Pantingin sa 'king nagbabalat na skin

Chorus:
                   G  A                 D       A-Bm
Sapagkat ngayong gabi, ako ang reyna ng Quezon City
                    G
Ihagis mo ang confetti,
                   A
Korona ko na kaylaki
                      D-Dsus2-D
'Pagkat sa akin ang gabi

Verse 2:
                    G      A
At kailangan ko ng shampoo,
                 D
pabango at pampahid sa buhok ko
                     G     
At lagyan mo 'ko ng make-up
      A                          D
Na babagay sa aking spaghetti strap

CHORUS

SOLO:
[ Tab from: http://www.guitartabs.cc/tabs/j/juana/reyna_ng_quezon_city_tab.html ]
e----------------------------------------------------------|
B----------------------------------------------------------|
G-11-11-12-11-9-7--------------9-11--11/12-14-14-12-12-11--|
B-----------------9-7--7-9-7--7-7--------------------------|
D----------------------------------------------------------|
A----------------------------------------------------------|
E----------------------------------------------------------|

e----------------------------------------------------------|
B----------------------------------------------------------|
G-11-11-12-11-9-12--12-12-12-12-12-11-8--9-9-9-11-12-14-7--|
D----------------------------------------------------------|
A----------------------------------------------------------|
E----------------------------------------------------------|

e----------------------------------------------------------|
B----------------------------------------------------------|
G-7-7-7-9-7-6-5--------------------------------------------|
D----------------------------------------------------------|
A----------------------------------------------------------|
E----------------------------------------------------------|

Accurate to.. hehehe.. isa lamang akong simpleng gitarista.. 1st tab ko to..
magandang kanta.. email nyo na lang ako.. rubs_tugz_23@yahoo.com
hi sa bandmates ko at sa C12
wag masyado harsh pag-rate.. 15 lang ako.. hehe
HI KAY MAU, NICA, GLES, PAYI, MAINE, KAYE (SED ARMOC)
AT SA C12... KAREN, BEL, KIM, FIEL, JV, BADET.
WOOOHOOO!!!
Comments