Juana - Pansinin Mo Chords & Tabs

 

Pansinin Mo Chords & Tabs

Juana Chords & Tabs

Version: 1 Type: Tab 0 ratings
1 star 2 stars 3 stars 4 stars 5 stars
comments

Pansinin Mo Tab

   
Pansinin Mo by Juana
standard tuning (ebgdae)

DISBAND rocks! *dis_bandmates@yahoo.com*
rate nyo ung tab ko para pag ok yung gawa ko gagawa ako next time ulit.. =)

Bass Intro
e|--------------------------------------------------------|
B|--------------------------------------------------------|
G|--------------------------------------------------------|
D|--------------------------------------------------------|
A|-------------3-----------3------------------------------|
E|---3---5--------5---------------------------------------|

*then pasok yung guitar*

Guitar intro:
    CM7    Dm7    Em7    Dm7
e|---3------5------7------5------------------------------------|
B|---5------6------8------6------------------------------------|
G|---4------5------7------5------------------------------------|  (x2)
D|---5------7------9------7------------------------------------|
A|---3------5------7------5------------------------------------|
E|-------------------------------------------------------------|

after nung 2 times na intro guitar
verse na....

Verse 1:
    CM7    Dm7    Em7    Dm7
e|---3------5------7------5------------------------------|
B|---5------6------8------6------------------------------|
G|---4------5------7------5------------------------------|
D|---5------7------9------7------------------------------|  (x4)
A|---3------5------7------5------------------------------|
E|-------------------------------------------------------|

Chorus: *sabay ung guitar 1 and 2*

guitar 1
e|-----------------------------------------------------------|
B|-----------------------------------------------------------|
G|---10-10-10-10-10--------5-5-5-5-5-------------------------|
D|---10-10-10-10-10--------5-5-5-5-5-------------------------| (x3)
A|----8--8--8--8--8--------3-3-3-3-3-------------------------|
E|-----------------------------------------------------------|
[ Tab from: http://www.guitartabs.cc/tabs/j/juana/pansinin_mo_tab.html ]
then:
e|---------------------------------------------------------|
B|---------------------------------------------------------|
G|---7-------10--------------------------------------------|
D|---7-------10--------------------------------------------|
A|---5-------8---------------------------------------------|
E|---------------------------------------------------------|

Chorus: guitar 2 (wah pedal)
e|----------------------------------------------------------------|
B|---10-10-10----5-5-5--------------------------------------------|
G|---10-10-10----5-5-5--------------------------------------------|
D|---10-10-10----5-5-5--------------------------------------------| (x3)
A|----------------------------------------------------------------|
E|----------------------------------------------------------------|

then: (strum once only)
e|------------------------------------------------|
B|---10------7------10----------------------------|
G|---10------7------10----------------------------|
D|---10------7------10----------------------------|
A|------------------------------------------------|
E|------------------------------------------------|

after chorus...  Solo 1 *sori di ko pa malalagay*
ihihiwalay ko nalang gagawa pako tabs ng solo nito*

Guitar intro: Sabay Solo 1

e|---0------5------7------5------------------------------------|
B|---5------6------8------6------------------------------------|
G|---4------5------7------5------------------------------------|
D|---5------7------9------7------------------------------------|
A|---3------5------7------5------------------------------------|
E|-------------------------------------------------------------|

Verse 2:

e|---0------5------7------5------------------------------|
B|---5------6------8------6------------------------------|
G|---4------5------7------5------------------------------|
D|---5------7------9------7------------------------------|  (x4)
A|---3------5------7------5------------------------------|
E|-------------------------------------------------------|

- End - 

*Just get the timing for the song*
Comments