Jua Music - Scissor Tits Chords & Tabs

 

Scissor Tits Chords & Tabs

Jua Music Chords & Tabs

Version: 1 Type: Tab 0 ratings
1 star 2 stars 3 stars 4 stars 5 stars
comments

Scissor Tits Tab

Jua Music
Scissor Tits

Verse
|----------------------------------|
|----------------------------------|
|----------------------------------|
|----------------------------------|play as much as you want
|-8-0-7-0-10-0-0-8-0-0-7-0-10-0-0--|
|-8-0-7-0-10-0-0-8-0-0-7-0—10-0-0--|

Prechorus
|----------------------------------------|
|----------------------------------------|
|----------------------------------------|
|----------------------------------------|
|-8-0-7-0-12--8-0-7-0-11-----------------|
|-8-0-7-0-12--8-0-7-0-11—back into verse-|
Then
|-------------------------------------|
|-------------------------------------|
|-------------------------------------|
|-------------------------------------|
|-8-0-7-0-5--8-0-7-0-------—----------|
|-8-0-7-0-5--8-0-7—0—then into chorus-|
[ Tab from: http://www.guitartabs.cc/tabs/j/jua_music/scissor_tits_tab.html ]
Chorus
|---------------------|
|---------------------|
|---------------------|
|-0---2--0---5---3----|
|-0---2--0---5---3----|
|-0---2--0---5—--3----|

Bridge
|-----------------|
|-----------------|
|-----------------|
|-0----5---7---8--|
|-0----5---7---8--|
|-0----5---7-—-8--|

|-------------------------------------|
|-------------------------------------|
|-------------------------------------|
|----555---777--------555---777-8888--|
|-555---777---8888-555---777-------—--|
|---------—---------------------------|

|---------------------------------------|
|---------------------------------------|
|-7---12---9--14--10--7--12--9---14--15-|
|---------------------------------------|same rhythm as before
|-5---10---7--12---8--5--10--7---12--13-|
|---------—-----------------------------|

Outro (Verse than this)
|-------------------------------------|
|-------------------------------------|
|-------------------------------end---|
|--------------------------------on---|
|-3-0-2-0-5-0-0-3-0-0-2-0-5-0-0---0---|
|-3-0-2-0-5-0-0-3-0-0-2—0-5-0-0---0---|
Comments