Joykiller - Seventeen Chords & Tabs

 

Seventeen Chords & Tabs

Joykiller Chords & Tabs

Version: 1 Type: Bass Tab 0 ratings
1 star 2 stars 3 stars 4 stars 5 stars
comments

Seventeen Bass Tab

   
Date: Sun, 27 Jul 1997 16:55:07 -0400 (EDT)
X-Sender: paf1@en.com (Unverified)
X-Mailer: Windows Eudora Light Version 1.5.2
To: bass@olga.net
From: Dave Sideserf 
Subject: TAB: 'Seventeen' by 'the Joykiller'

---------------------------------------
"Seventeen"          By: the Joykiller     
As found on the album: "the Joykiller"    
---------------------------------------

Intro
 G|--------------------------------------------------------------------------||
 D|------------------------------------------------------------------------ *||
 A|------3----------------3------------------3----------------------------- *||
 E|-5-5-----0-1-1-1-0-5-5-----0-1-1-3-3-5-5-----0-1-1-1-3-0-0-0-0-1-1-1-3-3-3||
[ Tab from: http://www.guitartabs.cc/tabs/j/joykiller/seventeen_btab.html ]
Verse
 G|--------------------------------------------------------------------||
 D|-------------------------------------------------------------------*||
 A|---------3-3-3-3-------------------------3-3-3-3-------------------*||
 E|-5-5-5-5---------1-1-1-1-0-0-0-3-5-5-5-5---------0-0-0-0-1-1-1-3-3-3||

Chorus
 G|----------------------------------------------------------------||
 D|---------------------------------------------------------------*||
 A|---------3-3-3-3-------------------------3-3-3-3---------------*||
 E|-5-5-5-5---------1-1-1-1-0-0-0-3-5-5-5-5---------1-1-1-1-0-0-3-3||

Verse 2
 G|----------------------------------||
 D|---------------------------------*||
 A|-5-5-5-5-4-4-4-4-3-3-3-3-2-2-2-2-*||
 E|----------------------------------||

Tabbed By: Dave Side-surf (bassist of Blind Sight)



Comments