Joydrop - Sometimes Wanna Die Chords & Tabs

 

Sometimes Wanna Die Chords & Tabs

Joydrop Chords & Tabs

Version: 1 Type: Tab 0 ratings
1 star 2 stars 3 stars 4 stars 5 stars
comments

Sometimes Wanna Die Tab

   
Sometimes Wanna Die- Joydrop
CD: Vibrate
Tabber: Mitchell (Mitchell_J@hotmail.com)
Tuning: Standard (with capo 1st fret)

This is such a great song I just needed to tab it!! All chords and notes
relative to capo. It's also cool that I got to meet 3/4 of the band and I
got their autographs!!! Notes in brackets are bass. If you can play the intro
without a bass player, then you kick ass! It's real tricky!

Intro:
e --2-----3---2-----3---2-----3---0-----0--
B ----3---------3---------3---------3------
G ------0---------0---------0---------0----
D -----------------------------------------
A -----------(3)-----------------(0)-------
E -(3)-----------------(0)-----------------
[ Tab from: http://www.guitartabs.cc/tabs/j/joydrop/sometimes_wanna_die_tab.html ]
Chorus:
e -----------------------------------------
B -----------------------------------------
G --------------5-5-5---------------2-2-2--
D -5-5-5-5-5-5--5-5-5--2-2-2-2-2-2--2-2-2--
A -5-5-5-5-5-5--3-3-3--2-2-2-2-2-2--0-0-0--
E -3-3-3-3-3-3---------0-0-0-0-0-0---------

Rhythm- second verse chords: G, Cadd9, Em7, A7sus4

Instrumental break:
e ---11-8----11-8----11-8----11-8-|-3--------3--------3--------3--------
B -9-------9-------9-------9------|---0-1-0----0-1-0----0-1-0-----------
G --------------------------------|------------------------------0-2-0--
D --------------------------------|-------------------------------------
A --------------------------------|-------------------------------------
E --------------------------------|-------------------------------------

Chords: G#5  C#5  F5  A#5  G  Cadd9 Em7 A7sus4
e	 x    x   x    x   3    3    3    3
B	 x    x   x    x   3    3    3    3
G	 x    5   x    2   0    0    0    2
D	 5    5   2    2   0    2    2    2
A	 5    3   2    0   2    3    2    0
E	 3    x   0    x   3    x    0    x

Tab originally from: http://diehardtabs.tripod.com
Comments