Joy Enriquez - Tell Me How You Feel Chords & Tabs

 

Tell Me How You Feel Chords & Tabs

Joy Enriquez Chords & Tabs

Version: 1 Type: Bass Tab 0 ratings
1 star 2 stars 3 stars 4 stars 5 stars
comments

Tell Me How You Feel Bass Tab

   
Tell Me How You Feel by |Joy Enriquez|
Tabbed out by Dinny Ghafar

Standard Tuning [E,A,D,G]


 =======
 |INTRO|
 =======

G:----------------------------------|
D:----------------------------------|
A:--4---4---4---4---4---4---4---4---|
E:----------------------------------|  This is only played once


 ==============
 |VERSE/CHORUS|
 ==============
[ Tab from: http://www.guitartabs.cc/tabs/j/joy_enriquez/tell_me_how_you_feel_btab.html ]
G:-----------------|-----------------|-------------|----------6--|
D:-----------2-----|-----------2-----|------8---6--|--6---8------|
A:--4-----4-----4--|--4-----4-----6--|--6----------|-------------|  This is played 
E:-----------------|-----------------|-------------|-------------|  throughout the song


Any mistakes??? Didn't think so....whatever. And if there are mistakes mail me at 
Cigaweed@Mauimail.com 

Oh yeah, it's not like i like this song but the 
bass line is pretty friggin catchy....so.....here it is.

It's a pretty simple song to play. Listen to the track to nail the timing.
Comments