Joy Division - Transmission Chords & Tabs

 

Transmission Chords & Tabs

Joy Division Chords & Tabs

Version: 1 Type: Tab 0 ratings
1 star 2 stars 3 stars 4 stars 5 stars
comments

Transmission Tab

#----------------------------------PLEASE NOTE---------------------------------#
#This file is the author's own work and represents their interpretation of the #
#song. You may only use this file for private study, scholarship, or research. #
#------------------------------------------------------------------------------##
From: Lyle Erickson 

Transmission ----Joy Division
~~~~~~~~~~~~

The intro goes like this:

---------------------------------------------------------------------
---------------------------------------------------------------------
-2-4-4---4--2-4-4---4--2-4-4---4--2-4-4\-----------------------------
---------------------------------------------------------------------
-----------------------------------------2--0-2-2----2--0-2-2---2----
--------------------------------------------------------------------- 

---------------------------------------------------------------------
---------------------------------------------------------------------
---------------------------------------------------------------------
--------/2-4-4------------0-2--0-2--0-2--2-0------0-2--0-2--0-2--2-0-
-0-2-2----------0-2-0-2-3---------------------2-3--------------------
---------------------------------------------------------------------

---------------------------------------------------------------------
---------------------------------------------------------------------
--------------------------2/4\---------------------------------------
-----0-2--0-2--0-2--2-0----------------------------------------------
-2-3-----------------------------------------------------------------
---------------------------------------------------------------------

Ok.. then be quiet while Ian does his lyrics, and after the verses
do something about the same as above.  Repeat this a few times, and
then:
-------------------------------------------   
--5^---5----5^-5--5^-5--5--3--3--0-3-0-3-0-
-------------------------------------------   Repeat Once...
-------------------------------------------
-------------------------------------------
-------------------------------------------
then:
---------------------------
--3-0-3-0-3-0-3-0-3-5-5^-3-   Reapeat 3 times (alter the last one
---------------------------   or two slightly)  
---------------------------
---------------------------
---------------------------
[ Tab from: http://www.guitartabs.cc/tabs/j/joy_division/transmission_tab.html ]
"/" and "\" are slides, "^" is a bend. 
In some if the verses and at the end there are some chords, so you
should beat out some power chords when you play it, but I'm not
sure what they are right now... just listen to it, they are probably
based in the notes of these riffs...  There might be an easier 
position to play this, but that's how I do it, anyway.  let us know
if any of it is incorrect...

           phungus@camelot.bradley.edu


*************************************************************************************************************


From: brandinius@aol.com (Brandinius)
Subject: Re: REQ: Joy Division lyrics


Transmission
------------
bass:
d-0-0-0-0-0-0-0-0-0-0-0-0-0-0-0------------------------------------
a--------------------------------0-3-3-3-3-3-3-3-3-3-3-3-3-3-3-3-0-
fill
d-0---0----2--
a---3---3-----

Guitar melody
e-----------------------------------------------
b-----------------------------------------------
g-2--4-4--2--2--4-4--2--------------------------
d-----------------------------------------------
a---------------0--2-2--0--0--2-2--0------------
e-----------------------------------------------


guitar solo

e----------------------------
b-6--5--6-5-6-5-6------------
g-----------7--4--7-4-7-4-7--
d----------------------------
a----------------------------
e----------------------------

**************************************************************************************************************


From:iodre@spark.net.gr
Sent:27 July 1998 09:00 PM
Subject: j/joy_division/walked_in_line.crd

WALKED  IN  LINE   by   JOY DIVISION   as it was recorded in the album
Still

Intro:

E-------------------------------------------------------------------------|
B-------------------------------------------------------------------------|
G-------------------------------------------------------------------------|
D-------------------------------------------------------------------------|
A-2--2-2-2-2-2-2-2-2-2-2-2--0-----------------------------------0---------|
E---------------------------------------3--3-3-3-3-3-3-3-3-3-0-3----------|

E-------------------------------------------------------------------------|
B-------------------------------------------------------------------------|
G-------------------------------------------------------------------------|
D--------------------------------------------------------------------0--0-|
A-2--2-2-2-2-2-2-2-2-2-2-2-0---------------------0-0-0-0------------------|
E--------------------------------------3--3-3-3-3-3-3---------------------|


**************************************************************************************************************

**********************************************************************************************************
Comments