Joy Division - The Eternal Chords & Tabs

 

The Eternal Chords & Tabs

Joy Division Chords & Tabs

Version: 2 Type: Bass Tab 0 ratings
1 star 2 stars 3 stars 4 stars 5 stars
comments

The Eternal Bass Tab

   
"The Eternal" by Joy Division (from the album "Closer")
=======================================================

transcribed by Gilles Velay (gvelay@club-internet.fr)

Notation :
	w : whole         t : 32th
	h : half	      R : rest
	q : quarter	      / : slide up
	e : 8th	    +++ : tied notes
	s : 16th          \ : slide down

Riff I
======
    q+e   e q+e   e   q+e   e e e e e
G-|-----------------|-----------------|
D-|-----------------|-----------------|
A-|-----------------|-----------------|
E-|-5-----R-5-----R-|-5-----R-5-3-2-0-|

Riff II
=======
    q   q   h         h       e e e e
G-|---------9-------|-9-------9---9---|
D-|-----7-----------|-----------7---7-|
A-|-0---------------|-----------------|
E-|-----------------|-----------------|

Riff III
========
    q   q   h         h       e e e e
G-|---------9-------|-9-------9-------|
D-|-----7-----------|-----------7---7-|
A-|-----------------|-------------0---|
E-|-0---------------|-----------------|
[ Tab from: http://www.guitartabs.cc/tabs/j/joy_division/the_eternal_btab_ver_2.html ]
Riff IV
========
    q   q   h         h       e e e e
G-|-9-------9-------|-9-------9---9---|
D-|-----7-----------|-----------7---7-|
A-|-----------------|-----------------|
E-|-----------------|-----------------|

Riff V
=======
    q   q   h         h       e e e e
G-|-9-------9-------|-9-------9-------|
D-|-----7-----------|-----------7---7-|
A-|-----------------|-------------0---|
E-|-----------------|-----------------|

Riff VI
=======
    q+e   e q+e   e   q+e   e q+e   e   
G-|-----------------|-----------------|
D-|-----------------|-----------------|
A-|-----------------|-----------------|
E-|-5-----R-5-----R-|-5-----R-5-----R-|



Intro : Riff I   (x4)
        Riff II  (x8) with keyboard

1st Verse : Riff II  (x8)

2nd Verse : Riff II  (x8)

Break : Riff II (x4)
        Riff I  (x5)
        Riff II (x8)

3rd Verse : Riff II  (x8)

4th Verse : Riff II  (x2)
            Riff III
            Riff IV
            Riff V   (x4)

End : Riff V  (x6)
      Riff VI (x4) and the last note is a A

Comments