Joy Division - Shes Lost Control Chords & Tabs

 

Shes Lost Control Chords & Tabs

Joy Division Chords & Tabs

Version: 3 Type: Bass Tab 0 ratings
1 star 2 stars 3 stars 4 stars 5 stars
comments

Shes Lost Control Bass Tab

riff 1 is played throughout the whole song accept the chorus when it seems to die
out a bit and riff 2 is played just before the chorus

riff 1
[ Tab from: http://www.guitartabs.cc/tabs/j/joy_division/shes_lost_control_btab_ver_3.html ]
g---12-12-12-12-12-12-9-12-9-7-7-7-7-9-9-9-9-9-9-7-9-7---------
d------------------------------------------------------9-9-9-9-
a--------------------------------------------------------------
e--------------------------------------------------------------

riff 2

g---12-12-12-12-12-7-7-7-9-12-12-12-12-12--------
d----------------------------------------9-9-9-9-
a------------------------------------------------
e------------------------------------------------
Comments