Joy Division - Love Will Tear Us Apart Chords & Tabs

 

Love Will Tear Us Apart Chords & Tabs

Joy Division Chords & Tabs

Version: 2 Type: Tab 0 ratings
1 star 2 stars 3 stars 4 stars 5 stars
comments

Love Will Tear Us Apart Tab

e]-------------0------0------00000000000000000---------------|
B]-------------0------0------00000000000000000---------------|
G]-------------0------0------00000000000000000       [Intro--|
D]-777777777777-777777-77777777777777777777777---------------|
A]-----------------------------------------------------------|
E]-555555555555-555555-77777755555555555555555---------------|

e]-----------------------------------------|
B]-----------------------------------------|       [Just Keep Repeating]
G]-999999-11-12-11-9-7------7--------------|
D]--------------------999999-777777--------|
A]-777777-9--10-9--7-5------5--------------|
E]--------------------777777-555555--------|

Thats almost pretty much the whole song.
[ Tab from: http://www.guitartabs.cc/tabs/j/joy_division/love_will_tear_us_apart_tab_ver_2.html ]
Comments