Joy Division - Incubation Chords & Tabs

 

Incubation Chords & Tabs

Joy Division Chords & Tabs

Version: 1 Type: Bass Tab 0 ratings
1 star 2 stars 3 stars 4 stars 5 stars
comments

Incubation Bass Tab

   
"Incubation" by Joy Division (from the album "Substance")
=========================================================

transcribed by Gilles Velay (gvelay@club-internet.fr)
 
Notation :
	w : whole
	h : half           
	q : quarter       / : slide up
	e : 8th           \ : slide down
	s : 16th


Riff 0
======
    e   e   e   e   e   e   e   e    e   e   e   e   e   e   e   e
G-|--------------------------------|--------------------------------|
D-|--------------------------------|--------------------------------|
A-|-5---5---5---5---5---5---5---5--|-5---5---5---5---5---5---5---5--|
E-|--------------------------------|--------------------------------|


Riff I
======
    e   e   e   e   e   e   e   e    e   e   e   e   e   e   e   e
G-|--------------------------------|--------------------------------|
D-|--------------------------------|--------------------------------|
A-|-5---5---5---5---5---5---5---5--|-5---5---5---5---5---0---0---0--|
E-|--------------------------------|--------------------------------|

Riff Ib
=======
    e   e   e   e   e   e   e   e    e   e   e   e   e   e   e   e
G-|--------------------------------|--------------------------------|
D-|--------------------------------|--------------------------------|
A-|-5---5---5---5---5---5---5---5--|-0---0---0---0---0---0---0---0--|
E-|--------------------------------|--------------------------------|


Riff II
=======
    e   e   e   e   e   e   e   e    e   e   e   e   e   e   e   e
G-|--------------------------------|/19--19--19--19--19--19--19--19-|
D-|--------------------------------|--------------------------------|
A-|-5---5---5---5---5---5---5---5--|--------------------------------|
E-|--------------------------------|--------------------------------|


Riff III
========
    e   e   e   e   e   e   e   e    e   e   e   e   e   e   e   e
G-|-19--19--19--19--19--19--19--19-|-19--19--19--19--19-------------|
D-|--------------------------------|--------------------------------|
A-|--------------------------------|---------------------15--15--15-|
E-|--------------------------------|--------------------------------|
[ Tab from: http://www.guitartabs.cc/tabs/j/joy_division/incubation_btab.html ]
    e   e   e   e   e   e   e   e    e   e   e   e   e   e   e   e
G-|-19--19--19--19--19--19--19--19-|--------------------------------|
D-|--------------------------------|--------------------------------|
A-|--------------------------------|-15--15--15--15--15--15--15--15-|
E-|--------------------------------|--------------------------------|


Outro
=====
    e   e   e   e   e   e   e   e    e   e   e   e   e   e   e   e
G-|-19--19--19--19--19--19--19--19-|-19--19--19--19--19-------------|
D-|--------------------------------|--------------------------------|
A-|--------------------------------|---------------------15--15--15-|
E-|--------------------------------|--------------------------------|

    e   e   e   e   e   e   e   e    e   e   e   e   e   e   e   e
G-|-19--19--19--19--19--19--19--19-|--------------------------------|
D-|--------------------------------|-------------------------10-/17-|
A-|--------------------------------|-15--15--15--15--15--15---------|
E-|--------------------------------|--------------------------------|

    e   e   e   e   e   e   e   e    e   e   e   e   e   e   e   e
G-|-19--19--19--19--19--19--19--19-|-19--19--19--19--19--17--17--19-|
D-|-0---0---0---0---0---0---0---0--|--------------------------------|
A-|--------------------------------|--------------------------------|
E-|--------------------------------|--------------------------------|

    e   q       e   e   e   e   e    e   e   e   e   e   e   e   e
G-|-17--19------19--19--19--19--19-|-17--17--17--17--17--17--17--17-|
D-|--------------------------------|--------------------------------|
A-|--------------------------------|--------------------------------|
E-|--------------------------------|--------------------------------|

    e   e   e   e   e   e   e   e    e   e   e   e   e   e   e   e
G-|-19--19--19--19--19--19--19--19-|-19--19--19--19--19--17--17--17-|
D-|--------------------------------|--------------------------------|
A-|--------------------------------|--------------------------------|
E-|--------------------------------|--------------------------------|

    e   e   e   e   e   e   e   e    w    
G-|-19--19--19--19--19--19--19--19-|-17\----------------------------|
D-|--------------------------------|--------------------------------|
A-|--------------------------------|--------------------------------|
E-|--------------------------------|--------------------------------|


Riff 0	then drums enter

Riff I	(x4)
Riff II	
Riff I	(x3)
Riff II
Riff I	(x2)
Riff III	(x2)

Riff I	(x3)
Riff II
Riff I	(x4)
Riff II
Riff I
Riff Ib
Riff III	(x2)

Riff I	(x3)
Riff II
Riff I 	(x5)
Riff II
Riff III

Outro



Comments