Joy Division - Exercise One Chords & Tabs

 

Exercise One Chords & Tabs

Joy Division Chords & Tabs

Version: 1 Type: Tab 0 ratings
1 star 2 stars 3 stars 4 stars 5 stars
comments

Exercise One Tab

   
#----------------------------------PLEASE NOTE---------------------------------#
#This file is the author's own work and represents their interpretation of the #
#song. You may only use this file for private study, scholarship, or research. #
#------------------------------------------------------------------------------##
From: cy888@cleveland.Freenet.Edu (Paul Thompson)
[ Tab from: http://www.guitartabs.cc/tabs/j/joy_division/exercise_one_tab.html ]
TAB:  Exercise One, Joy Division
 
Begins with straight feedback in the Peel Sessions, basically the same but
perhaps a little more studio processed on Still.
 
Solo:
 
E----0--0--0--0--0--0--0--0--0--0--0--0--0--0--0--0--0--0--0--0--0--0--0--0---|
B----5--5--5--5--5--7--7--7--7--7--8--8--8--8--7--7--7--7--7--5--5--5--5--5---|
G-----------------------------------------------------------------------------|
D-----------------------------------------------------------------------------|
A-----------------------------------------------------------------------------|
E-----------------------------------------------------------------------------|
 
Main Chords:
 
    A       B       C       B       A
E---5--->---7--->---8--->---7--->---5-----------------------------------------|
B---5--->---7--->---8--->---7--->---5-----------------------------------------|
G---6--->---8--->---9--->---8--->---6-----------------------------------------|
D---7--->---9--->---10-->---9--->---7-----------------------------------------|
A---7--->---9--->---10-->---9--->---7-----------------------------------------|
E---5--->---7--->---8--->---7--->---5-----------------------------------------|

Paul
-- 
  Paul Thompson    | cy888@freenet.cwru.edu
                   | THOMPSOP@VAXA.CIS.UWOSH.EDU
                   | Lord, protect me from those to whom you speak directly
********************************************************************************************************

From: cy888@cleveland.Freenet.Edu (Paul Thompson)
Subject: TAB: Joy Division, The Drawback


>From: Thorsten_Woell@suburbia.fido.de (Thorsten Woell)
>Subject: lyr:joy division/the drawback aka all of this for you
 
The Drawback (or All of this for You)
 
"Solo", played twice:
    G                     F          A                      G
E---3--3--3--3--3--3--3->-1--1-------5--5--5--5--5--5--5->--3--3---------------|
B---3--3--3--3--3--3--3->-1--1-------5--5--5--5--5--5--5->--3--3---------------|
G---4--4--4--4--4--4--4->-2--2-------6--6--6--6--6--6--6->--4--4---------------|
D---5--5--5--5--5--5--5->-3--3-------7--7--7--7--7--7--7->--5--5---------------|
A---5--5--5--5--5--5--5->-3--3-------7--7--7--7--7--7--7->--5--5---------------|
E---3--3--3--3--3--3--3->-1--1-------5--5--5--5--5--5--5->--3--3---------------|

 
 Paul Thompson |                Did someone say punk?
              |           [your favorite disclaimer here]
              | cy888@freenet.cwru.edu  THOMPSOP@VAXA.CIS.UWOSH.EDU


**************************************************************************************************************


 
 
Comments