Joy And Bevs - Kulang Na Kulang Chords & Tabs

 

Kulang Na Kulang Chords & Tabs

Joy And Bevs Chords & Tabs

Version: 1 Type: Chords 0 ratings
1 star 2 stars 3 stars 4 stars 5 stars
comments

Kulang Na Kulang Chords

   
KULANG NA KULANG
Artist: Joy and Bevs

Intro
E ---3--------------------------|
B -----3------------------------|
D -0------0-0h1----------------|
G -------2----------------------|
A -3----0-----------------------|
E ------------------------------|

E -----3------------------------|
B ----1----0h1h0----------------|
D -2------------0--------------|
G ------------------------------|
A -3----------------------------|
E ---------1--------------------|

[Verse 1]
C9	  Am  F
Sa tuwing magkasama
G
Parang bale wala
C9       Am      F
Nagmumukhang hangin
G
Dumaang bale wala
C	  Am      F     G
Ni ayaw mong hawakan aking kamay
[ Tab from: http://www.guitartabs.cc/tabs/j/joy_and_bevs/kulang_na_kulang_crd.html ]
[Chorus]
C9
Kulang na kulang ba?
Am
Hindi pa ba sapat
   F
Inubos kong lahat
    G
Panahon ko sa iyo
      C9
Anong gagawin
        Am
Di mo pinapansin
      F
Etong damdamin
      G
Aking Paglalambing

[Verse 2]
C9	 Am		F
Minsan ako'y nakahalata
      G
Ika'y tulala
C9		Am
Malalim ang iniisip
    F		   G
Malayo ang tingin
C9       Am
Aking nalaman
   F
Nabaling sa iba
       G
ang nilalaman ng iyong damdamin

[Repeat chorus]

Bridge:
  F			G
Buong magdamag, nag-isip kung bakit
  F		     G
Paanong nangyari, ito sa akin
F			G
Ayaw mo na pala, ba't di mo sinabi
   F	      G
Nagsawa ka na, paano na?

Repeat Chorus (2x

   C9  Am  F  G
E --3--0---3--3-|
B --3--1---1--3-|
D --0--2---2--0-|
G --2--2---0--0-|
A --3--0---3--2-|
E --x--x---x--3-|

Tabbed by Aeyan (dats meh!) :)
Comments