Journey - Seperate Ways Chords & Tabs

 

Seperate Ways Chords & Tabs

Journey Chords & Tabs

Version: 3 Type: Tab 0 ratings
1 star 2 stars 3 stars 4 stars 5 stars
comments

Seperate Ways Tab

#----------------------PLEASE NOTE--------------------------#
#--This file is the author's own work and represents their--#
#--interpretation of the song. You may only use this file---#
#-----for private study, scholarship, or research!----------#
#-----------------------------------------------------------#

Song Title:     Separate Ways
Author:         Journey
Album:		Time3
Tempo:		125
Transcribed By; Daniel Kinder
My Email:	dkinder5063@yahoo.com
Last edit:	December 8, 2004
Parts:		Solo, Tab Explanation
Missing:        Check out my other tab for the rest of the song.
Tuning:         Standard Tuning - EBGDAe
Notes:          The solo is correct; to get the timing you'll have to 
                listen to the song.

Solo

|---------12------------14---15--------------12-----------14---15------|
|---12---------------------------------12------------------------------|
|----------------------------------------------------------------------|
|----------------------------------------------------------------------|
|----------------------------------------------------------------------|
|----------------------------------------------------------------------|

|---15b16r---12---------14---15-------171617\16-17----1514---15-----|
|-------------------------------------------------------------------17-|
|----------------------------------------------------------------------|
|----------------------------------------------------------------------|
|----------------------------------------------------------------------|
|----------------------------------------------------------------------|
[ Tab from: http://www.guitartabs.cc/tabs/j/journey/seperate_ways_tab_ver_3.html ]
|------------------------------12----------14---15----------12-----14--|
|-13--------------------12----------------------------12---------------|
|-----1411b(1/2)r-----------------------------------------------------|
|----------------------------------------------------------------------|
|----------------------------------------------------------------------|
|----------------------------------------------------------------------|

|-1515b16r12\7/14-15-17-16-14-15--17-15-14-15/19-19-19-19-19-19-19-19|
|----------------------------------------------------------------------|
|----------------------------------------------------------------------|
|----------------------------------------------------------------------|
|----------------------------------------------------------------------|
|----------------------------------------------------------------------|

|-19-15-14-15-1413-14-13-14-15-13----------10b11r------------121010b|
|---------------------------------15-15-1310b11r----10b11r--------10b|
|---------------------------------------------------------------------|
|---------------------------------------------------------------------|
|---------------------------------------------------------------------|
|---------------------------------------------------------------------|

|11r10----------------------------------------------------------------|
|11r-----13-1210-------10--------------------------------------------|
|--------------------12------12------12--------------------------------|
|--------------------------------14------14-12--14--12-14--(14)-(14)-|
|----------------------------------------------------------------------|
|----------------------------------------------------------------------|

|-------------|
|-------------|
|-------------|
|--{14}--{14}-|
|-------------|
|-------------|

Tab Explanation

b - bend
r - release bend
b(1\2)r - bend one half step and release
\ - slide down
/ - slide up
Comments