Journey - Open Arms Chords & Tabs

 

Open Arms Chords & Tabs

Journey Chords & Tabs

Version: 1 Type: Tab 0 ratings
1 star 2 stars 3 stars 4 stars 5 stars
comments

Open Arms Tab

   
Journey 
Open Arms 

                                 
  D/E           D              A/C#          G/B
 
  Gtr I
|-----0-----2-|--------------|-----0-------|-----------|
|-------------|--3-----------|-----------2-|-3---------|
|-2-------2---|--------2-----|-2-----------|-----0--4--|
|---4---------|-----0-(0)----|---2-----2---|---0-------|
|-5-----5-----|-(5)----------|-4-----4-----|-2---------|
|-------------|--------------|-------------|-----------|


  Bm/C#           A6          G
|---------------|-----------|-----------3-|--5p=3-------||
|-3---2-------3-|-2---------|---------3---|-------3-----||
|-------4-(4)---|-----2-----|-4-----4-----|----------4--||
|---4------4----|---2----4--|-----5-------|-------------||
|-2-------------|-0---------|---5---------|-------------||
|---------------|-----------|-3-----------|-(3)---------||


 Verse
  D/E           D              A/C#          G/B
 3/4
|-----0-----2-|--------------|-----0-------|-------|
|-------------|--3-----------|-----------2-|-^3----|
|-2-------2---|--------2-----|-2-----------|-^4----|
|---4---------|-----0-(0)----|---2-----2---|-^5----|
|-5-----5-----|-(5)----------|-4-----4-----|-^2----|
|-------------|--------------|-------------|-------|


  Bm/C#           A6          G
|---------------|-----------|-----------3-|--5p=3--------|
|-3---2-------3-|-2---------|---------3---|-------3------|
|-------4-(4)---|-----2-----|-4-----4-----|-----------4--|
|---4------4----|---2----4--|-----5-------|---------5----|
|-2-------------|-0---------|---5---------|--------------|
|---------------|-----------|-3-----------|-(3)----------|


  D/E           D              A/C#          G/B
 3/4
|-----0-----2-|--------------|-----0-------|---3------|
|-------------|--3-----------|-----------2-|-3---3----|
|-2-------2---|--------2-----|-2-----------|----------|
|---4---------|-----0-(0)----|---2-----2---|----------|
|-5-----5-----|-(5)----------|-4-----4-----|-2--------|
|-------------|--------------|-------------|----------|


  Bm/C#           A6          G
|---------------|-----------|-----------3-|--5p=3--------||
|-3---2-------3-|-2---------|---------3---|-------3------||
|-------4-(4)---|-----2---2-|-4-----4-----|----------4---||
|---4------4----|---2-------|-----5-------|--------------||
|-2-------------|-0---------|---5---------|--------------||
|---------------|-----------|-3-----------|-(3)----------||
|
| Gtr II
|---------------|-----------|-------------|--------------||
|---------------|-----------|-------------|--------------||
|---------------|-----------|-------------|--------------||
|---------------|-----------|-------------|--------------||
|---------------|-----------|-------------|--------------||
|---------------|-----------|-------------|------------0-||


 Pre-Chorus
  Q=101(8=s8)
  $
  Em                       Bm                    A/C#
|-3--3--3--|--3---3--3---|-2--2---2----|--2---2-----|
|-5--5--5--|--5---5--5---|-3--3---3----|--3---3--5--|
|-4--4--4--|--4---4--4---|-4--4---4----|--4---4--2--|
|----------|-------------|-------------|---------2--|
|----------|-----------2-|-2-----(2)-2-|-(2)-----4--|
|----------|-------------|-------------|------------|
|
|----------|-------------|-2-----------|-(2)--------|
|-0--------|-(0)---------|-3-----------|-(3)--------|
|-0--------|-(0)---------|-4-----------|-(4)--------|
|-2--------|-(2)---------|-4-----------|-(4)--------|
|-2--------|-(2)-------2-|-------------|---------4--|
|----------|-------------|-------------|------------|


  D             A          G          A/G
|-2--2---2----|----------|----------|----------|
|-3--3---3----|-2--2--2--|-3--3--3--|-2--2--2--|
|-2--2---2--2-|-2--2--2--|-4--4--4--|-2--2--2--|
|-0---------2-|-2--2--2--|-5--5--5--|-2--2--2--|
|-----------4-|-0--------|----------|----------|
|-------------|----------|-3--------|-3--------|
|
|-------------|----------|-3--------|----------|
|-3-----(3)---|-2--------|-3--------|-2--------|
|-2-----(2)---|-2--------|-0--------|-2--------|
|-0-----(0)---|-2--------|-0--------|-2--------|
|-----------0-|----------|-x--------|-x--------|
|-------------|----------|-3--------|-3--------|


  G           A/G
|-----------|----------------|
|--3--3--3--|--2--2----2-----|
|--4--4--4--|--2--2----2-----|
|--5--5--5--|--2--2----2-----|
|-----------|----------------|
|--3--------|--3-------------|
|
|-----------|----------------|
|-12--------|-14-----(14)\---|
|-12--------|-14-----(14)\---|
|-12--------|-14-----(14)\---|
|-10--------|-12-----(12)\-5-|
|-----------|----------------|


 Chorus
  D/E        D                   F#m7       D/F#
|-2--2--2--|--2---2--2---------|-2--2--2--|--2---2--2----|
|-5--5--5--|--3---3--3---------|-5--5--5--|--3---3--3----|
|-2--2--2--|--2---2--2---------|-2--2--2--|--2---2--2----|
|-0--------|-(0)---------------|----------|--------------|
|----------|-------------------|----------|--------------|
|----------|-------------------|-2--------|-(2)----------|
|
|----------|-------------------|----------|--------------|
|----------|-------------------|----------|--------------|
|-7--------|-(7)---------------|----------|--------------|
|-7--------|-(7)---------------|-4--------|-(4)----------|
|-5--------|-(5)-------(2)S(4)-|-4--------|-(4)-----4\---|
|----------|-------------------|-2--------|-(2)--------3-|


  G                        Gm/C
|-3--3--3--|--3---3--3---|-3---3---3--|--3---3--3---------|
|-3--3--3--|--3---3--3---|-3---3---3--|--3---3--3---------|
|-4--4--4--|--4---4--4---|-3---3---3--|--3---3--3---------|
|----------|-------------|------------|-------------------|
|----------|-------------|-3----------|-(3)---------------|
|-3--------|-(3)---------|------------|-------------------|
|
|----------|-------------|-5-3--------|-------------------|
|-3--------|-(3)---------|-----3------|-------------------|
|-0--------|-(0)---------|-------3----|-------------------|
|-0--------|-(0)---------|------------|-------------------|
|-x--------|-----------3-|---------3--|-(3)-------(3)S(5)-|
|-3--------|-(3)---------|------------|-------------------|


  D/E        D                       F#m7       D/F#
|-2--2--2--|--2---2----------------|-2--2--2--|--2---2--2----|
|-5--5--5--|--3---3--5p3-----------|-5--5--5--|--3---3--3----|
|-2--2--2--|--2---2--------------2-|-2--2--2--|--2---2--2----|
|-0--------|-(0)-------------------|----------|--------------|
|----------|-----------------------|----------|--------------|
|----------|-----------------------|-2--------|-(2)----------|
|
|----------|-----------------------|----------|--------------|
|----------|-----------------------|----------|--------------|
|-7--------|-(7)-------------------|----------|--------------|
|-7--------|-(7)-------------------|-4--------|-(4)----------|
|-5--------|-(5)---------(2)S(4)---|-4--------|-(4)-----4\---|
|----------|-----------------------|-2--------|-(2)--------3-|

[ Tab from: http://www.guitartabs.cc/tabs/j/journey/open_arms_tab.html ]
                                         To Coda
  G                        Gm/C
|-3--3--3--|--3---3--3---|-6--6--6--|--6---6--6--||
|-3--3--3--|--3---3--3---|-8--8--8--|--8---8--8--||
|-4--4--4--|--4---4--4---|-7--7--7--|--7---7--7--||
|----------|-------------|----------|------------||
|----------|-------------|----------|------------||
|-3--------|-(3)---------|-8--------|-(8)--------||
|
|----------|-------------|-3--------|-(3)--------||
|-3--------|-(3)---------|-3--------|-(3)--------||
|-0--------|-(0)---------|-3--------|-(3)--------||
|-0--------|-(0)---------|-5--------|-(5)--------||
|-x--------|-----------3-|-3--------|-(3)--------||
|-3--------|-(3)---------|----------|------------||


  Q=98
  D/E               D               A/C#             G/B
 3/4
  Gtr I
|-----------------|---------------|-------0--------|------------|
|-------3---------|-------3-------|--------------2-|--3---------|
|----2-----(2)----|----2-----(2)--|--2-------------|------0--4--|
|--0--------------|--0------------|----2------2----|----0-------|
|-----------------|---------------|--4------4------|--2---------|
|-----------------|---------------|----------------|------------|
|
| Gtr III
|  ~~~~~~~                ~~              ~~          ~~
|--------------14-|---------------|----------------|------------|
|------17---------|-15------------|------17-----14-|-15---------|
|-14--------------|------14-------|-14-------------|------------|
|-----------------|---------------|----------------|------------|
|-----------------|---------------|----------------|------------|
|-----------------|---------------|----------------|------------|


  Bm/C#                A6
|--------------------|------------------|
|-----3----2-------3-|--2---------------|
|------------4-(4)---|-------2----------|
|-------4-------4----|----2-----4-------|
|-----2--------------|--0---------------|
|--------------------|------------------|
|
|--------------------|------------------|
|-14h15---14---15----|-14---------------|
|--------------------|------14----------|
|--------------------|---------------14-|
|--------------------|------------16----|
|--------------------|------------------|


         G
|---------------------3-|---5p=3------------||
|-------------------3---|--------3----------||
|----------4------4-----|--------------4----||
|---------------5-------|----------5--------||
|-------------5---------|-------------------||
|----------3------------|--(3)--------------||
|
|-----------------------|-------------------||
|-----------------------|-------------------||
|-14b16==(14)-----------|-(14)-------(14)r==||
|-----------------------|-------------------||
|-----------------------|-------------------||
|-----------------------|-------------------||


 Verse 2
  D/E              D              A/C#          G/B
 3/4
|--------0-----2-|--------------|-----0-------|-------|
|----------------|--3-----------|-----------2-|-^3----|
|---2--------2---|--------2-----|-2-----------|-^4----|
|------4---------|-----0-(0)----|---2-----2---|-^5----|
|---5------5-----|-(5)----------|-4-----4-----|-^2----|
|----------------|--------------|-------------|-------|
|
| Gtr III
|----------------|--------------|-------------|-------|
|----------------|--------------|-------------|-------|
|-(14)-----------|--------------|-------------|-------|
|----------------|--------------|-------------|-------|
|----------------|--------------|-------------|-------|
|----------------|--------------|-------------|-------|


  Bm/C#           A6          G
|---------------|-----------|-------------3---|--5p==3----------|
|-3---2-------3-|-2---------|-----------3-----|----------3------|
|-------4-(4)---|-----2-----|-4-----4---------|--------------4--|
|---4------4----|---2----4--|-----5-----------|------------5----|
|-2-------------|-0---------|---5-------------|-----------------|
|---------------|-----------|-3---------------|-(3)-------------|
|
|---------------|-----------|-----------------|-----------------|
|---------------|-----------|-----------------|--7--------------|
|---------------|-----------|-----------------|--7h9p7---7------|
|---------------|-----------|---------------7-|--------7h9------|
|---------------|-----------|---------7h9-----|-----------------|
|---------------|-----------|-----------------|-----------------|


  D/E           D                     A/C#          G/B
 3/4
|-----0-----2-|---------------------|-----0-------|-----------|
|-------------|--3------------------|-----------2-|-^3--------|
|-2-------2---|--------2------------|-2-----------|-^4--------|
|---4---------|-----0-(0)-----------|---2-----2---|-^5--------|
|-5-----5-----|-(5)-----------------|-4-----4-----|-^2--------|
|-------------|---------------------|-------------|-----------|
|
|-------------|---------------------|-------------|--3--------|
|-------------|---------------------|-------------|--3--------|
|-7-----------|-(7)-----------------|-2-----------|--0--------|
|-7-----------|-(7)-----------------|-2-----------|--0--------|
|-5-----------|-(5)---------(2)S(4)-|-----------2-|--------2--|
|-------------|---------------------|-------------|-----------|


                                        D.S. al Coda
  Bm/C#           A6           G
|---------------|------------|----------|-------------||
|-3---2-------3-|-2----------|-3--------|-----------3-||
|-------4-(4)---|-----2------|-----4----|---------4---||
|---4------4----|---2----4---|----------|-------5-----||
|-2-------------|-0----------|---5------|-------------||
|---------------|------------|-3--------|-(3)---------||
|
|-2-------------|------------|----------|-------------||
|-3-------------|-2----------|-0--------|-(0)---------||
|-4-------------|-2----------|-0--------|-(0)---------||
|-4-------------|-2----------|-0--------|-(0)---------||
|---------------|-0----------|----------|-------------||
|---------------|----------3-|-3--------|-(3)-------0-||


  Q=98
  &
  D/E              D              A/C#              G/B
 3/4
  Gtr I
|-------0------2-|--------------|-------0-------2-|------------|
|----------------|--3-----------|-----------------|--3---------|
|--2--------2----|--------2-----|--2---------2----|------------|
|----4-----------|-----0-(0)----|----4-(4)-4------|------------|
|--5------5------|-(5)----------|--3--------------|--3------3--|
|----------------|--------------|-----------------|------------|
|
| Gtr III
|-------------14-|--------------|--------------14-|------------|
|------17--------|-15-----------|------17---------|-15---------|
|-14-------------|-------14-----|-14--------------|-----14-----|
|----------------|--------------|-----------------|------------|
|----------------|--------------|-----------------|------------|
|----------------|--------------|-----------------|------------|


                                   H.=H
  Bm/C#            A6              G
|-------0------2-|--------8------|--------------------10-12-|--14---------*|
|----------------|-----------11--|-----------------10-------|-------------*|
|--2p0-(0)--0----|-----------10--|-------------11-----------|-------------*|
|----------------|-----------12--|--------------------------|-------------*|
|--2-------------|----10---------|---------12---------------|-------------*|
|----------------|--8------------|-10-----------------------|-(10)--10----*|
|
|-------------14-|---------------|--------------------------|-------------*|
|------17--------|-15------------|--------------------------|-------------*|
|-14-------------|-------17--15--|--------------------------|-------------*|
|----------------|---------------|-14h=16-----(16)----------|-(16)--------*|
|----------------|---------------|-17-(17)----(17)----------|-(17)--------*|
|----------------|---------------|--------------------------|-------------*|



Comments