Journey - Dont Stop Believin Chords & Tabs

 

Dont Stop Believin Chords & Tabs

Journey Chords & Tabs

Version: 1 Type: Tab 4 ratings
1 star 2 stars 3 stars 4 stars 5 stars
comments

Dont Stop Believin Tab

   
ÿþ                          Don't Stop Believin'
                          Tabbed By Dillon H.

		     Piano Intro & Verses Adapted for Guitar.

    ****************************************************************
					   Intro
    ****************************************************************
       E5                             B5
    E|------7-----7-----7-----7-----|-----7-----7-----7-----7------|
    B|------5-----5-----5-----5-----|-----7-----7-----7-----7------|
    G|---------4-----4-----4-----4--|--------4-----4-----4-----4---|
    D|------------------------------|------------------------------|
    A|--------------------------(2)-|-------------------(4)(6)(4)--|
    E|-----(0)------------(2)(4)----|------------------------------|
       (*Bass line provided is optional.)

       E5                             A				
    E|------7-----7-----7-----7-----|-----5-----5-----5-----5------|
    B|------5-----5-----5-----5-----|-----2-----2-----2-----2------|
    G|---------4-----4-----4-----4--|--------2-----2-----2-----2---|
    D|------------------------------|-------------------(0)(2)-----|
    A|--------------------(6)(7)(0)-|------------------------------|
    E|------------------------------|-------------------------(0)--|

       E5                             B5
    E|------7-----7-----7-----7-----|-----7-----7-----7-----7------|
    B|------5-----5-----5-----5-----|-----7-----7-----7-----7------|
    G|---------4-----4-----4-----4--|--------4-----4-----4-----4---|
    D|------------------------------|------------------------------|
    A|--------------------------(2)-|-------------------(4)(6)-----|
    E|--------------------(2)(4)----|-------------------------(4)--|

       B/G#                           A				
    E|------7-----7-----7-----7-----|-----5-----5-----5-----5------|
    B|------4-----4-----4-----4-----|-----2-----2-----2-----2------|
    G|---------4-----4-----4-----4--|--------2-----2-----2-----2---|
    D|------------------------------|-------------------(0)(2)-----|
    A|--------------------------(0)-|------------------------------|
    E|-----------------------(4)----|------------------------------|
[ Tab from: http://www.guitartabs.cc/tabs/j/journey/dont_stop_believin_tab.html ]
    ****************************************************************
				      Verses 1 & 2
    ****************************************************************
       E5                             B5
    E|------7-----7-----7-----7-----|-----7-----7-----7-----7------|
    B|------5-----5-----5-----5-----|-----7-----7-----7-----7------|
    G|---------4-----4-----4-----4--|--------4-----4-----4-----4---|
    D|------------------------------|------------------------------|
    A|--------------------------(2)-|-------------------(4)(6)(4)--|
    E|-----(0)------------(2)(4)----|------------------------------|
			         1. Just  a  small  town  girl,_
			         2. Just  a     cit-y    boy,_

       E5                             A				
    E|------7-----7-----7-----7-----|-----5-----5-----5-----5------|
    B|------5-----5-----5-----5-----|-----2-----2-----2-----2------|
    G|---------4-----4-----4-----4--|--------2-----2-----2-----2---|
    D|------------------------------|-------------------(0)(2)-----|
    A|--------------------(6)(7)(0)-|------------------------------|
    E|------------------------------|-------------------------(0)--|
			      livin' in  a    lone - ly world.____
			     born and raised in South De-troit.___

       E5                             B5
    E|------7-----7-----7-----7-----|-----7-----7-----7-----7------|
    B|------5-----5-----5-----5-----|-----7-----7-----7-----7------|
    G|---------4-----4-----4-----4--|--------4-----4-----4-----4---|
    D|------------------------------|------------------------------|
    A|--------------------------(2)-|-------------------(4)(6)-----|
    E|--------------------(2)(4)----|-------------------------(4)--|
			       She took the    midnight  train_  go - in'
			        He took the    midnight  train_  go - in'

       B/G#                           A				
    E|------7-----7-----7-----7-----|-----5-----5-----5-----5------|
    B|------4-----4-----4-----4-----|-----2-----2-----2-----2------|
    G|---------4-----4-----4-----4--|--------2-----2-----2-----2---|
    D|------------------------------|-------------------(0)(2)-----|
    A|--------------------------(0)-|------------------------------|
    E|-----------------------(4)----|------------------------------|
           an    -    y    -    where.____ (Go to 2nd Verse)
           an    -    y    -    where.____ (End of Verse 2)

    ****************************************************************
					   Notes
    ****************************************************************
			    There is 8 Beats to a Measure.
  			  Each Note Gets 1 Beat Except Bass.
	       The (Bass Notes) can be Played by a Second Guitar.
		       Sounds Great on Electric & Acoustic!
			      This Tab is 100% Correct.

	        E5=XXX457   B5=XXX477   A=XXX225   B/G#=XXX447

			   Tabbed by: PizzaCow (Dillon H.)
    Comments? Questions? Threats? Send them to pizzacow@hotmail.com
Comments