Joss Stone - Super Duper Love Chords & Tabs

 

Super Duper Love Chords & Tabs

Joss Stone Chords & Tabs

Version: 1 Type: Tab 0 ratings
1 star 2 stars 3 stars 4 stars 5 stars
comments

Super Duper Love Tab

   
Joss Stone
Super Duper Love
Soul Sessions
Tabbed by - Tom_d00d




Intro
					pm.......

e-----3--5^-5-5p3-3---------------------------------------------------------10~|
B--3----------------5p3--------------------------------------------------10----|
G/4-4--------------------2p0-0-----0-0--2~0-0-----------0-2-/4-/7-/9-/12-------|
D-------------------------------/2------------------0-2------------------------|
A-----------------------------------------------0-2----------------------------|
E------------------------------------------------------------------------------|


e-15p12----12---------------------------------------------|
B------15----15p12--15p12----12---------------------------|
G------------------------14-----14p12--14p12----12-14~----|
D-------------------------------------------14------------|
A---------------------------------------------------------|
E---------------------------------------------------------|


Chorus

e-------------------------------------------------- |
B--------------------------------------------------.| Repeat, mess around  
G----------0-2--2^~-------------------------------- | with it a bit ye!
D------0-2-----------2p0----0---0------------------ | 
A-0-2---------------------2--------2p0-0~----------'| 
E-------------------------------------------------- |

[ Tab from: http://www.guitartabs.cc/tabs/j/joss_stone/super_duper_love_tab.html ]
Verse
				 1st time    4th time
  Em7		      Am7	'''''''''' ''C''''D'''
e-7(7)---7----77~----|--12----12----1212~--- |-8----10--|
B-7h8----8----88~----|--12h13-13----1313~---.|-8----10--|
G-7(7)---7----77~----|--12----12----1212~--- |-9----11--|
D--------------------|---------------------- |-10---12--|
A--------------------|----------------------'|-10---12--|
E--------------------|---------------------- |-8----10--|


Bridge

  Bm	       Am	     C	  D
e----7--7---------5--5-------8----10--- |
B----7----7-------5----5-----8----10---.|
G----7------7-----5------5---9----11--- |
D-x--9---------x--7----------10---12--- |
A-9--9---------7--7----------10---12---'|
E-7--7---------5--5----------8----10--- |


Solo

e--17^----17-15~-12----------------------------------------------------------|
B------------------15-15p12--------------------------------------------------|
G---------------------------14p12~~-----15---15---15------------12-----------|
D----------------------------------14/16---16---16---14---12-14----14--12~~--|
A----------------------------------------------------------------------------|
E----------------------------------------------------------------------------|

e-------------------15^~-15~--15p12----12--------------------------------------|
B----------------15----------------15----15p12--15p12---12---------------------|
G------12-14-/16-------------------------------------14----14p12--14p12---12-14|
D12h14-----------------------------------------------------------------14------|
A------------------------------------------------------------------------------|
E------------------------------------------------------------------------------|


Outro

e-15p12----12---------------------------------------------|
B------15----15p12--15p12----12---------------------------|
G------------------------14-----14p12--14p12----12-14~----|
D-------------------------------------------14------------|
A---------------------------------------------------------|
E---------------------------------------------------------|
Comments