Joss Stone - Super Duper Love Chords & Tabs

 

Super Duper Love Chords & Tabs

Joss Stone Chords & Tabs

Version: 2 Type: Bass Tab 0 ratings
1 star 2 stars 3 stars 4 stars 5 stars
comments

Super Duper Love Bass Tab

SUPER DUPER LOVE - Joss Stone


Tabbed By : Paulo Gradim
e-mail: http://youtube.com/paulogradim

Tuning: EADG

G|---------------------------------------------------------|
D|-----------------------------------5---------------------|  Intro x8
A|----------5h7---X757--------5h7-7-----7------------------|
E|------33--------------55---------------------------------|
[ Tab from: http://www.guitartabs.cc/tabs/j/joss_stone/super_duper_love_btab_ver_2.html ]
G|---------------------------------------------------------|
D|-----------------------------------5---------------------|  Verse x4
A|----------5h7---X757--------5h7-7-----7------------------|
E|------33--------------55---------------------------------|

Prechorus

G|--------------------     --------------------------------------|
D|-------------------      --------------------------------------| 
A|-------------------- X3  -------3-5----------------------------|
E|--5-6-7--77777-55555     --5-6---------------------------------|


Then Verse, then the solo
For the solo just repeat what you do for the verse
Then Chorus
Comments