Joss Stone - Super Duper Love Chords & Tabs

 

Super Duper Love Chords & Tabs

Joss Stone Chords & Tabs

Version: 1 Type: Bass Tab 0 ratings
1 star 2 stars 3 stars 4 stars 5 stars
comments

Super Duper Love Bass Tab

   
--------------------------------------------------------------------------
			     SUPER DUPER LOVE - Joss Stone
--------------------------------------------------------------------------

Tabbed By : 
e-mail: 

Tuning:

G|-----------------------0---------------------------------|
D|----------202------002---2-------------------------------|  Intro x8
A|---------------00----------------------------------------|
E|--33--33-------------------------------------------------|
[ Tab from: http://www.guitartabs.cc/tabs/j/joss_stone/super_duper_love_btab.html ]
G|-----------------------0---------------------------------|
D|----------202------002---2-------------------------------|  Verse x4
A|---------------00----------------------------------------|
E|--33--33-------------------------------------------------|

G|---------------     ------------------------------------------|
D|---------------     ------------------------------------------| PreChorus
A|--0-1-2--2-1-0- X3  --0-1-2~--0-2-3-5~------------------------|
E|---------------     ------------------------------------------|

G|-----------------------0---------------------------------|
D|----------302------002---2-------------------------------|   Chorus x4
A|---------------00----------------------------------------|
E|--33--33-------------------------------------------------|

Then Verse, then the solo
For the solo just repeat what you do for the verse
Then Chorus
Comments