Joss Stone - Some Kind Of Wonderful Chords & Tabs

 

Some Kind Of Wonderful Chords & Tabs

Joss Stone Chords & Tabs

Version: 1 Type: Bass Tab 0 ratings
1 star 2 stars 3 stars 4 stars 5 stars
comments

Some Kind Of Wonderful Bass Tab

   
This my first tab, så I'll just try :)

Riff 1 (The C7)
G|----5-3-----------5-3----------------|
D|--------5-3--1--------5-3------------|
A|--3-------------3--------------------|
E|-------------------------------------|
[ Tab from: http://www.guitartabs.cc/tabs/j/joss_stone/some_kind_of_wonderful_btab.html ]
Riff 2 (The F7)
G|-------------------------------------|
D|----3-1----------3-1-----------------|
A|--------3-1----------3-1-------------|
E|--1----------4-1---------------------|

There's something more, but i couldn't find out, so you must be content with this :)
Comments