Joss Stone - Right To Be Wrong Chords & Tabs

 

Right To Be Wrong Chords & Tabs

Joss Stone Chords & Tabs

Version: 2 Type: Tab 0 ratings
1 star 2 stars 3 stars 4 stars 5 stars
comments

Right To Be Wrong Tab

"Right To Be Wrong" by Joss Stone

h = hammer on
p = pull off
pm = palm mute
. = staccato note
x = muted note
~ = vibrato
pb = pre bend
bh = bend and hold
r = release bend

I've decided to include the lyrics because otherwise it would
be way too difficult to follow.

standard tuning


|--------------------------------------------------------------|
|--------------------------------------------------------------|
|--------------------------------------7-9.-9~~~---9bh--r-9p7--|
|----------------------------7-9~~~--9-------------------------|
|---------5-7-5~~~---5/7-7h9-----------------------------------|
|-----5/7------------------------------------------------------|

|---------------------------------------------------------|
|--------------------11bh--r-7----------------------------|
|--------------------------------9/11--11\9---9bh--r-9p7--|
|-9p7-9-9-9p7\--------------------------------------------|
|--------------5------------------------------------------|
|---------------------------------------------------------|


 I gotta right to be wrong
|--------------------------------9.-8.-x-7.-10----------------|
|-------------------------------------------10----------------|
|---------------------------9/11------------------------------|
|-------------------------------------------------------------|
|-------------------------------------------------------------|
|-------------------------------------------------------------|


 My mistakes will make me strong                    I'm steppin out
|----------------------------------------------------------------|
|---------------------------------------------------10~---12~----|
|--------------------------------------------9.-7----------------|
|-------------------------------------7h9-7.---------------------|
|---------------------------------7/9----------------------------|
|----------------------------------------------------------------|


 into the great unknown                   I'm Feeling wings though
|----------------------------------------------------------------|
|----------------------------------------------------------------|
|-----------------------9p7---7-9/11-----------------------------|
|---------------------------9--------9~~~------------------------|
|----------------------------------------------------------------|
|----------------------------------------------------------------|


                 (1/4)     (1/4)
 I've never flown                   I've got a mind of my own
|------------------------------------------------------------|
|-----------------11b-9--------------------------------------|
|-----------------------9p7-9br-7~~--------------------------|
|------------------------------------------------------------|
|------------------------------------------------------------|
|------------------------------------------------------------|


 (* gradually release bend)
      *________|            I'm flesh and blood to the bone
|----------------------------------------------------------|
|----------------------------------------------------------|
|-9bh-9-9-9-9-9r-p7-7-7~~\---------------------------------|
|----------------------------------------------------------|
|----------------------------------------------------------|
|----------------------------------------------------------|


                 (1/2)
 I'm not made of stone                    Got a right to be wrong
|----------------------------------------------------------------|
|----------------11bh-11-11-11r-11\9-9-9-9\7-7-7-7\5-5-5-5\3-3---|
|--------------------------------------------------------------2-|
|----------------------------------------------------------------|
|----------------------------------------------------------------|
|----------------------------------------------------------------|

 P.M__|               so just leave me alone
|----------------------------------------------|
|----------------------------------------------|
|-------9-9h10p9\7-----------------------------|
|-----7------------9\--------------------------|
|-7-9------------------------------------------|
|----------------------------------------------|

[chorus]
                    I've got a right to be wrong    I've been down
|-----------------------------------------------------------------|
|-------------------------9-10~~--------------------12-10~~-------|
|---------9p7-----7~~---------------------------------------------|
|-------------9-7-------------------------------------------------|
|-----------------------------------------------------------------|
|-----------------------------------------------------------------|

 too long            I've got to break free        so that I can
|---------10h12-10~~-----------------------10~------------------|
|----------------------------------------------12.--------------|
|---------------------------------------------------------------|
|---------------------------------------------------------------|
|---------------------------------------------------------------|
|---------------------------------------------------------------|

 finally breathe  I've got a right to be wrong  got to sing my
|-------------------------------------------------------------|
|----------10.--------------------10-12-10--------------------|
|-------11---------------------11-----------------------------|
|-------------------------------------------------------------|
|-------------------------------------------------------------|
|-------------------------------------------------------------|

 own song               I might be singing out of key
|------------------------------------------------------|
|--------7-10------------------------------------------|
|-------------9p7---7~~--------------------------------|
|-----------------9----------------9.-9\7--------------|
|-----------------------------------------9\7-5--------|
|------------------------------------------------------|

 but it sure feels good to me   I got a right to be wrong
|-------------------------------12~~--10~-----7h9--------|
|--------------7-10-------------------------------7.-----|
|---------7-9.------9p7---7~~----------------------------|
|-----7h9---------------9--------------------------------|
|-7/9----------------------------------------------------|
|--------------------------------------------------------|

               so just leave me alone
|-------------------------------------------|
|-------------------------------------------|
|-9p7---7-9---------------------------------|
|-----9-----9\------------------------------|  [end chorus]
|-------------------------------------------|
|-------------------------------------------|


                        (1/2)
 you're entitled to your opinion  but it's really my decision
|-----------------------12b---10~~---------------------------|
|------------------------------------------------------------|
|------------------------------------------------9p7---------|
|------------------------------------------------------------|
|------------------------------------------------------------|
|------------------------------------------------------------|

 I can't turn back I'm on a mission  If you care don't you dare
|--------------------------------10.--------------------10.----|
|--------7-10.------------10/12------------------10/12---------|
|--------------------------------------------------------------|
|--------------------------------------------------------------|
|--------------------------------------------------------------|
|--------------------------------------------------------------|

[ Tab from: http://www.guitartabs.cc/tabs/j/joss_stone/right_to_be_wrong_tab_ver_2.html ]
 (1/2)              (1/2)
 blur my vision    let me bee all that I can be  don't
|-pb13r-12----10~~--12b-r-----------------------------|
|----------12-----------------------------------------|
|-----------------------------------------------------|
|-----------------------------------------------------|
|-----------------------------------------------------|
|-----------------------------------------------------|


 smother me with negativity  whatever's out there waiting for me
|-14.-14.-14\12-12h14-10~~--------------------10.-10/12---------|
|---------------------------------------10h12-------------------|
|---------------------------------------------------------------|
|---------------------------------------------------------------|
|---------------------------------------------------------------|
|---------------------------------------------------------------|


 I'm gonna to face it willingly
|-pb12-r-12-10-------------------------------------|
|--------------10-12-10---------10--10--10--10--10-|
|--------------------------------7---7---7---7---7-|
|--------------------------------9---9---9---9---9-|
|--------------------------------------------------|
|--------------------------------------------------|


                                 (1/2)
 I've got a right to be wrong                my mistakes will
|------------------------------------------------------------|
|------------------------------------------------------------|
|-----------------------------7-9-9b-r-7-9~~-----------------|
|------------------------------------------------------------|
|------------------------------------------------------------|
|------------------------------------------------------------|


 make me strong                I'm stepping out into the
|-------------------------------------------------------|
|--------------12-10------------------------------------|
|--------------------9p7-9-7~~--------------------------|
|-------------------------------------------------------|
|-------------------------------------------------------|
|-------------------------------------------------------|


 (1/2)
 great unknown          I'm feeling wing though I've never flown
|-13b-----------10h12p10----------------------------------------|
|---------------------------------------------------------------|
|---------------------------------------------------------------|
|---------------------------------------------------------------|
|---------------------------------------------------------------|
|---------------------------------------------------------------|


                                          (1/2)
                  I've got a mind of my own
|-14.-14.-12.-10--------------------------------------------|
|-15.-15.-14.-12-----------------------------------------8.-|
|-------------------------------------------9b-r-----7/9----|
|-----------------------------------------------------------|
|-----------------------------------------------------------|
|-----------------------------------------------------------|

 flesh and blood to the bone I'm not made of stone
|----------------------------------------------------------------|
|---------------------8/10--10\8-------------------------10~-12.-|
|---------------------------------------------------7/9----------|
|----------------------------------------------------------------|
|----------------------------------------------------------------|
|----------------------------------------------------------------|


 I got a right  to  be  wrong   P.M____|     so just leave me alone
|------------------------------------------------------------------|
|------------------------------------------------------------------|
|------------------------------------------------------------------|
|----------------7/9-9---7~~----7-7-7-7-6-5.-----------------------|
|------------5-7-------9-------------------------------------------|
|--------5-7-------------------------------------------------------|


 I got a right to be wrong   I've been held down to long
|---------------------------13b----------------12-10h12p10--|
|-----------------------------------------------------------|
|-----------------------------------------------------------|
|-----------------------------------------------------------|
|-----------------------------------------------------------|
|-----------------------------------------------------------|


 I've got to break free
|------10----10.-12\10.--------------------10-10-10-7-7-7--|
|------10h12-10.-10\-8.--------------7-7-7/10-10-10-7-7-7--|
|--------------------------------7-9-----------------------|
|----------------------------7-9---------------------------|
|----------------------------------------------------------|
|----------------------------------------------------------|


            I've got a right to be wrong     got to sing my own
|-10-10-10-7-7-7/10-10-10-7-10-----------13b-------------------|
|-10-10-10-7-7-7/10-10-10-7-10---------------------------------|
|--------------------------------------------------------------|
|--------------------------------------------------------------|
|--------------------------------------------------------------|
|--------------------------------------------------------------|


 song  I might be singing out of key     but it sure feels good
|-------------------------------------------10--x-10--x-10/12-|
|--14/15~~--------15p13p12------------10/12-10--x-10--x-10/12-|
|--------------------------------------9/11-------------------|
|--------------------------14\12.-----------------------------|
|-------------------------------------------------------------|
|-------------------------------------------------------------|


  to me                got  a   right   to   be   wrong
|-10/12-12-12-10-10-10----------------------------------------------|
|-10/12-12-12-10-10-10-12-12-12-10-10-10-7-7-7----------------------|
|----------------------11-11-11--9--9--9-7-7-7-9-9-9-7-7-7--7-------|
|----------------------------------------------9-9-9-7-7-7--7h9-7~~-|
|-------------------------------------------------------------------|
|-------------------------------------------------------------------|

                         so just leave me alone
|-------------------------------------------------------------|
|------------------------------------------------11bh--r-7~~--|
|---------------------7.--------------------------------------|
|--7h9--7h9-9-9-9-9-9-7.--------------------------------------|
|-------------------------------------------------------------|
|-------------------------------------------------------------|


 [misc ad lib]
|---------------------------------------------------------------|
|-----------------------------------12-10----------12-10--------|
|-9/11--11\9---9bh--r-9p7-----------------9-11~~---------9-11~~-|
|---------------------------------------------------------------|
|---------------------------------------------------------------|
|---------------------------------------------------------------|


                       backup: got a right got a right
|-----------------------------------------------------|
|-----------------------------------------------------|
|-11\9-7---7h9~~--------------------------------------|
|--------9--------------------------------------------|
|-----------------------------------------5-7-5~~~----|
|-------------------------------------5/7-------------|


 got a right got a right
|-------------------------------------------------------------|
|-------------------------------------------------------------|
|-------------------7-9.-9~~~---9bh--r--9p7-------------------|
|---------7-9~~~--9----------------------------9p7-9-9-9p7\---|
|---5/7-9---------------------------------------------------5-|
|-------------------------------------------------------------|
Comments