Josie And The Pussycats - You Dont See Me Chords & Tabs

 

You Dont See Me Chords & Tabs

Josie And The Pussycats Chords & Tabs

Version: 3 Type: Tab 0 ratings
1 star 2 stars 3 stars 4 stars 5 stars
comments

You Dont See Me Tab

the song is played with a capo on 2 fret. It's played with a pick and they play
something like this(not 100% correct):

[ Tab from: http://www.guitartabs.cc/tabs/j/josie_and_the_pussycats/you_dont_see_me_tab_ver_3.html ]
--------3---------------3------------3---------3---|
----------3---3-----------3---3--1---1----------1--|
------------0--------0------0----2-----------0-----|
--0----------------2-------------2---------2-------|
--2--------------3---------------0-0---0-3---------|
--3-3----------------------------------------------|


--------3---------------3------------3--3-----3-2------|
----------3---3-----------3---3--1---1--1-----3-3-3--3-|
------------0--------0------0----2-----2----2-------2--|
--0----------------2-------------2--------0------------|
--2--------------3---------------0-0-------------------|
--3-3--------------------------------------------------|
Comments