Josie And The Pussycats - You Dont See Me Chords & Tabs

 

You Dont See Me Chords & Tabs

Josie And The Pussycats Chords & Tabs

Version: 2 Type: Tab 0 ratings
1 star 2 stars 3 stars 4 stars 5 stars
comments

You Dont See Me Tab

   
-------------------------------------------------------
--     You don't see me - Josie and the pussycats    --
--    Tabbed by - Mad_Carol ( mad_carol@yeayea.com ) --
-------------------------------------------------------
[ Tab from: http://www.guitartabs.cc/tabs/j/josie_and_the_pussycats/you_dont_see_me_tab_ver_2.html ]
The song is basically that in a simple way...
If you figure out the variations, the rest of it, or anything else,
please e-mail-me!

------5-----------5-----------5---------5---4-----
----5---5-------5---5-------5---5-----5---5---5---
--------------4-----------------------------------
--------------------------------------------------
--4-------4-5---------5-4-2-------4-5-------------
--------------------------------------------------
Comments