Josie And The Pussycats - Shapeshifter Chords & Tabs

 

Shapeshifter Chords & Tabs

Josie And The Pussycats Chords & Tabs

Version: 1 Type: Tab 0 ratings
1 star 2 stars 3 stars 4 stars 5 stars
comments

Shapeshifter Tab

K THIS SI MY FIORST TAB, SO LEAVE ME ALONE LOL IT MIGHT SUUCK, BUT OH WELL LOL HERE IT 
FOR YOU....


intro
e--------------------------------|
b--------------------------------|
g--9-----------------------------|
d--9-9-11-7-9---11-7-9-7-11-9----|
a--7-9-11-7-9---11-7-9-7-11-9----|
e----7--9-5-7----9-5-7-5--9-7----|


verse
e------------------------------------------------------------|
b------------------------------------------------------------|
g--9999999---------------------------------------------------|
d--9999999-99999999-11/11/11/11/11/11/11-77777777-999999999--|
a--7777777-99999999-11/11/11/11/11/11/11-77777777-999999999--|
e----------77777777--9--9--9--9--9--9--9-55555555-777777777--|
[ Tab from: http://www.guitartabs.cc/tabs/j/josie_and_the_pussycats/shapeshifter_tab.html ]
verse 2
e---------------------|
b---let-ring----------|
g--9------------------|
d--9-9-11-7-9---------|
a--7-9-11-7-9---------|
e----7--9-5-7---------|

chorus
e-----------------------------|
b-----------------------------|
g--999------------------------|
d--999-999--11/11/11-999------|
a--777-999--11/11/11-999------|
e------777---9--9--9-777------|

post chorus
e---------------------|
b---------------------|
g--999----------------|
d--999-999-777--------|
a--777-999-777--------|
e------777-555--------|

ending
e------|
b------|
g--9---|
d--9---|
a--7---|
e------|

intro - 3x
verse - 4x
verse2
chorus - 2x
post chorus - 2x
verse - 4x
verse2 - 2x
chrous - 2x
intro - 2x
chorus - 3x
post chorus - 4x

THE TIMING IS EASY TOO FIGURE OUT, U DONT GOTTA BE A BRAIN SURGEON LOL
Comments