Josie And The Pussycats - Pretend To Be Nice Chords & Tabs

 

Pretend To Be Nice Chords & Tabs

Josie And The Pussycats Chords & Tabs

Version: 2 Type: Bass Tab 0 ratings
1 star 2 stars 3 stars 4 stars 5 stars
comments

Pretend To Be Nice Bass Tab

G |--------------------------------------------|
D |--------------------------------------------|
A |33333333-00000000----------1-1-----1-1------|
E |------------------00000000-----1-1-----1-1--|

G |--------------------------------------------|
D |--------------------------------------------|
A |33333333-00000000----------1-1-----1-1------|
E |------------------00000000-----1-1-----1-1--|


Chorus:
G |--------------------------------------------|
D |--------------------------------------------|
A |33----------33----------33------------------|
E |---33-00-11----33-00-11----33-00-11-33333333|

G |--------------------------------------------|
D |--------------------------------------------|
A |3-------3-------3---------------------------|
E |--3-1-----3-1-----3-1---33333333------------|

G |--------------------------------------------|
D |--------------------------------------------|
A |33----------33----------33----------33333333|
E |---33-00-11----33-00-11----33-00-11---------|


G |--------------------------------------------|
D |--------------------------------------------|
A |33333333-00000000----------1-1-----1-1------|
E |------------------00000000-----1-1-----1-1--|

G |--------------------------------------------|
D |--------------------------------------------|
A |33333333-00000000----------1-1-----1-1------|
E |------------------00000000-----1-1-----1-1--|

[ Tab from: http://www.guitartabs.cc/tabs/j/josie_and_the_pussycats/pretend_to_be_nice_btab_ver_2.html ]
Chorus:
G |--------------------------------------------|
D |--------------------------------------------|
A |33----------33----------33------------------|
E |---33-00-11----33-00-11----33-00-11-33333333|

G |--------------------------------------------|
D |--------------------------------------------|
A |3-------3-------3---------------------------|
E |--3-1-----3-1-----3-1---33333333------------|

G |--------------------------------------------|
D |--------------------------------------------|
A |33----------33----------33----------33333333|
E |---33-00-11----33-00-11----33-00-11---------|


G |--------------------------------------------|
D |--------------------------------------------|
A |55555555-22222222----------3-3-----3-3------|
E |------------------22222222-----3-3-----3-3--|


Chorus:
G |--------------------------------------------|
D |--------------------------------------------|
A |55----------55----------55------------------|
E |---55-22-33----55-22-33----55-22-33-55555555|

G |--------------------------------------------|
D |--------------------------------------------|
A |5-------5-------5---------------------------|
E |--5-3-----5-3-----5-3---55555555------------|


Continue next bar until fade out….
G |--------------------------------------------|
D |--------------------------------------------|
A |55----------55----------55------------------|
E |---55-22-33----55-22-33----55-22-33-55555555|

Comments