Josh Weber - Tequila Chords & Tabs

 

Tequila Chords & Tabs

Josh Weber Chords & Tabs

Version: 1 Type: Tab 0 ratings
1 star 2 stars 3 stars 4 stars 5 stars
comments

Tequila Tab

Tabbed by: Lisa Weber
                             Tequila!
                            Josh Weber

E|---------------------------------------------------------------------|
B|---------------------------------------------------------------------|
G|---------------------------------------------------------------------|
D|---------------------------------------------------------------------|
A|---------------------------------------------------------------------|
E|--5-5--3--5-5--8--7-7-7-7-7--7--12--tequila--5-5--3--5--5-5-3-3-3-3--|

E|---------------------------------------------------------------------|
B|---------------------------------------------------------------------|
G|---------------------------------------------------------------------|
D|---------------------------------------------------------------------|
A|---------------------------------------------------------------------|
E|--5-5--3--5--5-5-3-3-3-3--5-5--3--5--5-5-3-3-3--5-5--3--5--5-5-3-3-3-|
[ Tab from: http://www.guitartabs.cc/tabs/j/josh_weber/tequila_tab.html ]
E----------------------------------------------------------------------|
B----------------------------------------------------------------------|
G----------------------------------------------------------------------|
D----------------------------------------------------------------------|
A----------------------------------------------------------------------|
E|-0--5--5--3--7--3--5--0-----0--5--5--3--7--3--5-----0--5--5--3--7--5-|

E------------------------------+---------------------------------------|
B------------------------------r---------------------------------------|
G------------------------------e---------------------------------------|
D------------------------------s---------------------------------------|
A------------------------------t---------------------------------------|
E|--0-----0--5--5--3--7--3--5--+--12--13s1--5-5--3-3-3-----5-5--3-3-3--|

E----------------------------------------------------------|:----------|
B----------------------------------------------------------|:----------|
G----------------------------------------------------------|:----------|
D----------------------------------------------------------|:----------|
A----------------------------------------------------------|:----------|
E|--5-5--3-3-3--13s1--5-5-3-3-3----3--5--0--3-5-8----5-3-5-|:-0-3-5-8--|

E----------:|----------------------------------------------|]
B----------:|----------------------------------------------|]
G----------:|----------------------------------------------|]
D----------:|----------------------------------------------|]
A----------:|----------------------------------------------|]
E|--5-3-5--:|--0-3-5-8----5-3-5--7-7-7-7-7-7--13--tequila--|]
Comments