Josh Smith - Ode To You Chords & Tabs

 

Ode To You Chords & Tabs

Josh Smith Chords & Tabs

Version: 1 Type: Tab 0 ratings
1 star 2 stars 3 stars 4 stars 5 stars
comments

Ode To You Tab

"ode to you" instrumental version
by josh smith

|----0-0----------0-0----------0-0----------0-0----------0-0--------------|
|--------3------------3------------3------------3------------3------------|
|----------0------------0------------0------------0------------0----------|
|------------4------------4------------4------------4------------4--------|
|-5------------5------------5------------5------------5------------5------|
|-------------------------------------------------------------------------|

               {        repeat 2x              }
|--0-0----------0-0-0-0-0--0-0-0-0-0--0-0-0-0-0---0-0-0-0-0-0--0----------|
|------3--------3-3-3-3-3--5-5-5-5-5--1-1-1-1-1---3-3-3-3-3-3--5----------|
|--------0------0-3-0-0-0--0-0-0-0-0--0-0-0-0-0---0-0-0-0-0-0--0----------|
|----------4----4-4-4-4-4--6-6-6-6-6--2-2-2-2-2---4-4-4-4-4-4--6----------|
|------------5--5-5-5-5-5--7-7-7-7-7--3-3-3-3-3---5-5-5-5-5-5--7---5------|
|---------------0-0-0-0-0--0-0-0-0-0--0-0-0-0-0---0-0-0-0-0-0--0----------|
[ Tab from: http://www.guitartabs.cc/tabs/j/josh_smith/ode_to_you_tab.html ]
|-0-0----------0-0----------0-0----------0-0----------0-0-----------------|
|-----3------------3------------3------------3------------3---------------|
|-------0------------0------------0------------0------------0-------------|
|---------4------------4------------4------------4------------4-----------|
|-----------5------------5------------5------------5------------5---------|
|-------------------------------------------------------------------------|

              {           x 2                     }
|-0-0----------0-0-0-0-0-0-0-0--5-5/0--0-0-0-0-0-0------------------------|
|-----3--------3-3-3-3-3-3-3-3--3-3/5--5-5-5-5-5-5------------------------|
|-------0------4-4-4-4-4-4-4-4--4-4/6--6-6-6-6-6-6------------------------|
|---------4----5-5-5-5-5-5-5-5--5-5/7--7-7-7-7-7-7------------------------|
|-----------5--0-0-0-0-0-0-0-0--0-0/0--0-0-0-0-0-0------------------------|
|--------------0-0-0-0-0-0-0-0--0-0/0--0-0-0-0-0-0------------------------|

>REPEAT WHOLE THING 2X<

josh smith(j_smitty13@hotmail.com)
please send comments
Comments