Josh Rouse - Winter In The Hamptons Chords & Tabs

 

Winter In The Hamptons Chords & Tabs

Josh Rouse Chords & Tabs

Version: 1 Type: Tab 0 ratings
1 star 2 stars 3 stars 4 stars 5 stars
comments

Winter In The Hamptons Tab

   
Winter in the Hamptons

Artist - Josh Rouse
Album - Nashville
Song - Winter in the Hamptons

Capo on the 4th fret

Tabbed by Alex Hof @ www.alexhof.com

riff1: (listen to the song for the rhytm)
e|-0---0---0---0-0-0---0---0---0---------|
B|-2---2---2---2-2-0---0---0---0---------|
G|-2---2---2---2-2-2---2---2---2---------| 4X
D|-2---2---2---2-2-2---2---2---2---------|
A|-0---0---0---0-0-0---0---0---0---------|
E|---------------------------------------|

riff2:
e|-------------2-0-------------------------|
B|-----3-------3-3---------------2---------|
G|-------0---0-----------0-----2-----------| 4X
D|---4-----------------2-----2-------------|
A|-2-----------------------0---------------|
E|---------3---------0---------------------|

Intro: (riff1)

(riff2)Ba ba dap bah,  4x 

Here we (Bm7)go(Gmaj7), (Em)singing our (A)songs with our (Bm7)soul (Gmaj7)
The (Em)winter has (A)gone, where do (Bm7)we (Gmaj7)belong (Em) (A)
We have (Gmaj7)stayed too long

Friday (Bm7)night(Gmaj7), we're (Em)so up(A)tight we get (Bm7)stoned(Gmaj7)
(Em)Sit in the (A)Hamptons, it (Bm7)is too (Gmaj7)cold (Em) (A)
We have (Gmaj7)stayed too long (Gmaj7)

(Gmaj7)Spring is finally here and we're (A)so well dressed
It's a (Bm7)talent and it's our (Gmaj7)style
So put (Gmaj7)on your hat because the (A)forecast is rain clouds (riff1)

Ba ba dap (Bm7)bah(Gmaj7), (Em) (A) 4x 

Never (Bm7)know(Gmaj7), (Em)Americans (A)seem such A (Bm7)bore (Gmaj7)
(Em)Embarassed and (A)still we are (Bm7)hanging(Gmaj7) (Em)on (A)
We have (Gmaj7)stayed too long
[ Tab from: http://www.guitartabs.cc/tabs/j/josh_rouse/winter_in_the_hamptons_tab.html ]
And we'll (Bm7)fly(Gmaj7), (Em)take A (A)trip, see the (Bm7)Euro (Gmaj7)sites (Em) (A)
Our (Bm7)money is (Gmaj7)gone, where (Em)do we (A)belong
We have (Gmaj7)stayed too long (Gmaj7)

(Gmaj7)Sick of living here, we're (A)such a mess
Cause the (Bm7)government, they're all (Gmaj7)liars
So put (Gmaj7)on your hat because the (A)forecast is rain clouds (riff1)

(riff2)Ba ba dap bah,  4x (one guitar)

Ba ba dap (Bm7)bah(Gmaj7), (Em) (A) 4x (the rest comes in)

SOLO: (Bm7) (Gmaj7) (Em) (A)

e|----------------------------------------|
B|-2/7---7/10-7---7/2h3-3/7---7/10-7------|
G|----------------------------------------|
D|----------------------------------------|
A|----------------------------------------|
E|----------------------------------------|

e|-------------------------------------------------------------------------|
B|-------------------------------------------------------------------------|
G|-------------------------------------------------------------------------|
D|-------------------------------------------------------------------------|
A|-9-9-9-9-9-9-9-9---9-9-7/5-4-0h2/4---9-9-9-9-9-9-9-9---9-9-7/5-4-0h2/4---|
E|-------------------------------------------------------------------------|

e|-------------------------------------------------------------2-0------0---|
B|-------------------------------------------------------------3-3----3-3---|
G|--------------------------------------------------------------------2-----|
D|-7-7-6-5---5/7-6-5--------------------------------------------------------|
A|-----------------------9-9-9-9-9-9-9-9---9-9-7/5-4-0h2/4----------2-------|
E|-----------------------------------------------------------3--------------|

Chords used in song
 
Bm7       x24232         Em        022000
Gmaj7     3x0032         A         x02220
Comments