Josh Rouse - Michigan Chords & Tabs

 

Michigan Chords & Tabs

Josh Rouse Chords & Tabs

Version: 1 Type: Tab

Michigan Tab

   
Intro and Verse:
Part I     (Straight Eigth notes)
e----------------------------------------------------------------------------|
b----------------------------------------------------------------------------|
g--------0-----------2-------2---------- Two times, then play----------------|
d----2-------2---0-------0-------0-------------------------------------------|
a----------------------------------------------------------------------------|
E--1---1---1---1---1---1---1---1---------------------------------------------|

Part II   (Straight Eigth notes)
e---------------------------------------------------------------------------|
b--------1-----------1-------1----------------------------------------------|
g----2-------2---0-------0-------0---Two times------------------------------|
d---------------------------------------------------------------------------|
a--1---1---1---1---1---1---1---1--------------------------------------------|
E---------------------------------------------------------------------------|

Most of the song uses these two parts, first part I and then part II, over and over 
 Remember to repeat each part before moving on to the next.
[ Tab from: http://www.guitartabs.cc/tabs/j/josh_rouse/michigan_tab.html ]
The song has one other part to it, but it isn't used that often.   Part III
    E  E E  .Quater    E   E        E  E  E  .Quater  E E
e|------------------------------|-------------------------------------------|
b|------------------------------|-------------------------------------------|
g|-10-10-10-10---------10--10---|---10-10-10-10-------10-10-----------------|
d|-10-10-10-10---------10--10---|---10-10-10-10-------10-10-----------------|
a|-8--8--8--8----------8---8----|---9--9--9--9--------9--9------------------|
E|------------------------------|-------------------------------------------|
   E  E  E  .Quater     E  E      E  E  E  .Quater    E  E
e|------------------------------|-------------------------------------------|
b|------------------------------|-------------------------------------------|
g|-10-10-10-10---------10-10----|-10-10-10-10---------10-10-----------------|
d|-10-10-10-10---------10-10----|-10-10-10-10---------10-10-----------------|
a|--x--x--x--x----------x--x----|--x--x--x--x----------x--x-----------------|
E|-10-10-10-10---------10-10----|--8--8--8--8----------8--8-----------------|

After part III, play part II and then part I

Listen to the song for the order.

Enjoy!