Josh Kelley - Small Town Boy Chords & Tabs

 

Small Town Boy Chords & Tabs

Josh Kelley Chords & Tabs

Version: 1 Type: Tab 0 ratings
1 star 2 stars 3 stars 4 stars 5 stars
comments

Small Town Boy Tab

   
Small Town Boy - Josh Kelley

Tabbed by Ryan Morrissey
Email: morsels2319@netscape.net

*there are two guitars (G1&G2) in this song so I tried tabbing both
**try out both and have fun with it


INTRO/VERSE  (G1&G2)

e|---------------------------------------------------------------|
B|---------------------------------------------------------------|
G|--11--11----9--9---7--7---6--6---2--2---4--4---2--2----6--6----|
D|-----0--------0------0------0------0------0------0-------0-----|
A|---------------------------------------------------------------|
E|--10----10--9---9--7---7--5---5--2---2--3---3--2---2---5---5---|

    Everyone wants to be...


BRIDGE  (G1&G2)

e|------------------------------------------------------------|
B|------------------------------------------------------------|
G|------7------7------7------7------7------7------7------7----|
D|-----0-0----0-0----0-0----0-0----0-0----0-0----0-0----0-0---|
A|---------------------------------------------3------3-------|
E|---7------7------5------5------3------3---------------------|

         So this is your change...			(3x then below 1x)
[ Tab from: http://www.guitartabs.cc/tabs/j/josh_kelley/small_town_boy_tab.html ]
e|-----------------------------------------------0---------------0-|
B|-------------------------------------------------3-----------3---|
G|------7------7------7------7------7------7---------4-------4-----|
D|-----0-0----0-0----0-0----0-0----0-0----0-0----------4---4-------|
A|---------------------------------------------3-------------------|
E|---7------7------5------5------3------3--------------------------|

            Cause you know everybody's...


SOLO  (G1 only: G2 plays the INTRO through the solo)

e|-------------------------------------------------------|
B|-------------------------------------------------------|
G|---12h14--12-11---11h12--11-9---9h11--9-7---7h9--7-6---|
D|-------------------------------------------------------|
A|-------------------------------------------------------|
E|-------------------------------------------------------|


e|------------------------------------|
B|---7--7---8--8---10--10---8--7------|
G|--------------------------------9---|
D|---7-7-7--7-7-7--7--7--7--7--7--7---|
A|------------------------------------|
E|------------------------------------|


e|-------------------------------------------------------|
B|---14h15--14-12---12h14--12-10---10h12--10--10-12-14---|
G|-------------------------------------------------------|
D|-------------------------------------------------------|
A|-------------------------------------------------------|
E|-------------------------------------------------------|


e|-------------------9-10-12-10-9------------|
B|---8h10--8----8-10--------------10h12-10---|
G|-----------11------------------------------|
D|-------------------------------------------|
A|-------------------------------------------|
E|-------------------------------------------|


OUTRO same as intro ending on 10xx11xx
Comments