Josh Kelley - Home To Me Chords & Tabs

 

Home To Me Chords & Tabs

Josh Kelley Chords & Tabs

Version: 1 Type: Tab 0 ratings
1 star 2 stars 3 stars 4 stars 5 stars
comments

Home To Me Tab

----------------------------------------------------------------------------
			     Home to Me - Josh Kelley
----------------------------------------------------------------------------
Tabbed by:MC
Email:mcdaddy0945@aol.com

Tuning: standard Capo 2nd Fret *TAB relative to capo

This is the Intro completly and the first riff of the intro is also played as the
verse...Have fun this sounds really beautiful!


[ Tab from: http://www.guitartabs.cc/tabs/j/josh_kelley/home_to_me_tab.html ]
e|--------0h2--------------------------------------------------3p2---------|
B|------------3---0--------0h1------------------3-----------------3---3----|
G|----2----------2---------------2----0-------------0----0---2-------------|
D|--0--------------------2---------2-------------------0---0---------------|
A|-------------------0----------------------2-----------------------0------|
E|----------------------------------------3--------------------------------|

e|------0h2------------------------------------------3p2----2---2----------|
B|----------3--0-------0h1-------------3-----------------3----3---3--------|
G|---2--------2-------------2--0----------0----0---2-------2----2---2------|
D|-0----------------2---------2--------------0---0-------------------------|
A|----------------0-----------------2--------------------------------------|
E|--------------------------------3----------------------------------------|

END INTRO
Comments